Oops, an error
Loading. Please wait.

In My World Bass Tab

ver1
ver1

Whole song

Interactive

More versions @911Tabs.com
2,703 views 12 this week
no commentswrite comment
1 2 3 4 5
accurate
x 1
Autoscroll
+/-
esc
set tempo
stop
Contributor
Hey! There's an official Ultimate Guitar app which is ideal
for learning songs when you're away from computer. Get the app
WARNING: You are trying to view
                                    content from Ultimate-Guitar.com
                                    in an unauthorized application,
                                    which is prohibited.

                                    Please use an official Ultimate
                                    Guitar Tabs application for iPhone,
                                    iPad or Android to access legitimate
                                    chords, guitar, bass, and drum tabs
                                    from Ultimate-Guitar.com database.

                                    Type "ultimate guitar tabs" in Apple
                                    App Store's or Android Market's
                                    search to find the application.
-----------------------------------------------------------------------------
                         IN MY WORLD - RookiEz is Punk'd
-----------------------------------------------------------------------------


Originally tabbed by Dazz (Vanguards)
Revised by BU (cptetmoi-at-gmail-dot-com)

Tuning: C#-F#-B-E

Listen carefully to the song for the rythm !


[INTRO]
Bass part starts from the slide in.

E |----------------|----------------|----------------|----------------|
B |----------------|----------------|----------------|----------------|
F#|----------------|----------------|----------------|----------------|
C#|----------------|----------------|----------------|----------------|

E |----------------|----------------|----------------|----------------|
B |----------------|----------------|----------------|----------------|
F#|----------------|----------------|----------------|----------------|
C#|----------------|----------------|----------------|----------3\0--0|

E |----------------|------------------|----------------|------------------|
B |----------------|------------------|----------------|------------------|
F#|----------------|-----------5-7----|----------------|-----------5-7----|
C#|~~~0---0~~~0---0|~~~0---0-7-------0|~~~0---0~~~0---0|~~~0---0-7-------0|

E |----------------|------------------|----------------|------------------|
B |----------------|------------------|----------------|------------------|
F#|----------------|-----------5-7----|----------------|-----------5-7----|
C#|~~~0---0~~~0---0|~~~0---0-7-------0|~~~0---0~~~0---0|~~~0---0-7-------0|

[VERSE 1]
E |----------------|----------------|----------------|----------------|
B |----------------|----------------|----------------|----------------|
F#|----------------|----------------|----------------|----------------|
C#|~~~0------------|---------------0|~~~0------------|-----------15\-8|

E |----------------|----------------|----------------|----------------|
B |----------------|----------------|----------------|----------------|
F#|----------------|----------------|----------------|---------5-7----|
C#|~~~8-8-8-8-8-8-8|-8-8-8-8-8-8-8-8|~~~8-8-8-8-8-8-8|-8-8-8-7-------0|

E |----------------|----------------|----------------|----------------|
B |----------------|----------------|----------------|----------------|
F#|----------------|----------------|----------------|----------------|
C#|~~~0------------|---------------0|~~~0------------|----------/15\-8|

E |----------------|----------------|----------------|----------------|
B |----------------|----------------|----------------|----------------|
F#|----------------|----------------|----------------|------------0~~~|
C#|~~~8-8-8-8-8-8-8|-8-8-8-8-8-8-8-8|~~~8-8-8-8-8-8-8|-8-8-8-8-8------|

[PRE_CHORUS]
E |----------------|----------------|----------------|----------------|
B |----------------|----------------|----------------|----------------|
F#|2----------3----|----------------|5---------------|------------0---|
C#|-~~~~~~~~~~~~~~~|~~~~~~~~~~~~~~~~|~~~~~~~~~~~~~~~~|~~~~~~~~~~~-~~~~|

E |----------------|----------------|----------------|----------------|
B |----------------|----------------|----------------|----------------|
F#|2-----------3---|----------------|5---------------|----------------|
C#|~~~~~~~~~~~~~~~~|~~~~~~~~~~~~~~~~|~~~~~~~~~~~~~~~~|---------------0|

[CHORUS]
E |----------------|----------------|----------------|----------------|
B |----------------|----------------|----------------|------4-5-4-----|
F#|---------------3|~~~3-3-3-3-3-3--|---------------5|~~~5--------5-5-|
C#|~~~0-0-0-0-0-0--|---------------3|~~~3-3-3-3-3-3--|---------------0|

E |----------------|----------------|----------------|----------------|
B |----------------|----------------|----------------|----------------|
F#|---------------3|~~3-3-3-3-3-3-3-|----------------|0-0-0-0-2-2-2-3-|
C#|~~~0-0-0-0-0-0--|----------------|3-3-3-3-3-3-3-3-|----------------|

E |----------------|----------------|----------------|----------------|
B |----------------|----------------|----------------|----------------|
F#|~~~3-3-3-3---3-5|~~~5-5-5-5---5--|----------------|----------------|
C#|-----------3----|-----------7---0|~~~0-0-0~~~0-0-3|~~~3-3-3-3-0-3~~|

E |----------------|----------------|----------------|--------|
B |----------------|----------------|----------------|--------|
F#|3-3-3-3-3-3-3-3-|3-3-3-3-3-3-3-3-|5-5-5-5-5-5-5-5-|6-~~~~\-|
C#|----------------|----------------|----------------|--------|

[VERSE 2]
E |----------------|----------------|----------------|----------------|
B |----------------|----------------|----------------|----------------|
F#|----------------|----------------|----------------|----------------|
C#|----------------|----------------|----------------|---------------0|

E |----------------|----------------|----------------|----------------|
B |----------------|----------------|----------------|----------------|
F#|----------------|-----------5-7--|----------------|-----------5-7--|
C#|~~~0---0~~~0---0|~~~0---0-7-----0|~~~0---0~~~0---0|~~~0---0-7-----0|

E |----------------|----------------|----------------|------------------|
B |----------------|----------------|----------------|------------------|
F#|----------------|-----------5-7--|----------------|-----------5-7----|
C#|~~~0---0~~~0---0|~~~0---0-7-----0|~~~0---0~~~0---0|~~~0---0-7-------0|

E |----------------|----------------|----------------|------------------|
B |----------------|----------------|----------------|------------------|
F#|----------------|-----------5-7--|----------------|-----------------3|
C#|~~~0---0~~~0---0|~~~0---0-7-----0|----------------|------------------|

E |----------------|----------------|----------------|----------------|
B |----------------|----------------|----------------|----------------|
F#|--3-3---3---3---|3---3---3---3--0|--0-0---0---0---|5---5---5----0--|
C#|~~--------------|----------------|~~--------------|--------------~~|

[PRE-CHORUS]
E |----------------|----------------|----------------|----------------|
B |----------------|----------------|----------------|----------------|
F#|2-----------3---|----------------|5---------------|------------0---|
C#|-~~~~~~~~~~~-~~~|~~~~~~~~~~~~~~~~|-~~~~~~~~~~~~-~~|~~~~~~~~~~~~-~~~|

E |----------------|----------------|----------------|----------------|
B |----------------|----------------|----------------|----------------|
F#|2-----------3---|----------------|5---------------|----------------|
C#|-~~~~~~~~~~~-~~~|~~~~~~~~~~~~~~~~|--~~~~~~~~~~~~~~|---------------0|

[CHORUS]
E |----------------|----------------|----------------|----------------|
B |----------------|----------------|----------------|-----4-5-4------|
F#|---------------3|~~~3-3-3-3-3-3--|---------------5|~~~5-------5-5--|
C#|~~~0-0-0-0-0-0--|---------------3|~~~3-3-3-3-3-3--|---------------0|

E |----------------|----------------|----------------|----------------|
B |----------------|----------------|----------------|----------------|
F#|---------------3|~~~3-3-3-3-3-3-3|----------------|-0-0-0-0-2-0-2-3|
C#|~~~0-0-0-0-0-0--|----------------|-3-3-3-3-3-3-3-3|----------------|

E |----------------|----------------|----------------|----------------|
B |----------------|----------------|----------------|----------------|
F#|~~~3-3-3-3---3-5|~~~5-5-5-5---5--|----------------|----------------|
C#|-----------3----|-----------7---0|~~~0-0-0~~~0-0-3|~~~3-3-3-3-0-3~~|

E |----------------|----------------|----------------|-----------------|
B |----------------|----------------|----------------|--------/13~~~~~\|
F#|3-3-3-3-3-3-3-3-|3-3-3-3-3-3-3-3-|5-5-5-5-5-5-5-5-|6-6-6\-----------|
C#|----------------|----------------|----------------|-----------------|

[GUITAR SOLO]
E |----------------|----------------|----------------|----------------|
B |----------------|----------------|----------------|----------------|
F#|----------------|----------------|----------------|----------------|
C#|0-0-0-0-0-0-0-0-|0-0-0-0-0-0-0-0-|2-2-2-2-2-2-2-2-|2-2-2-2-2-2-2-2-|

E |----------------|----------------|----------------|----------------|
B |----------------|----------------|----------------|----------------|
F#|----------------|----------------|----------------|5-5-5-5-------3~|
C#|3-3-3-3-3-3-3-3-|3-3-3-3-3-3-3-3-|5-5-5-5-5-5-5-5-|--------7-7-7---|

E |----------------|----------------|----------------|----------------|
B |----------------|----------------|----------------|----------------|
F#|~~3-3-3-3-3-3-3-|3-3-3-3-3-3-3~~~|----------------|----5-5~~~~~~~\-|
C#|----------------|----------------|5-5-5-5-5-5-5-5-|-X--------------|

[CHORUS]
E |----------------|----------------|----------------|----------------|
B |----------------|----------------|----------------|----------------|
F#|----------------|----------------|---------------3|~~~3-3-3-3-3-3--|
C#|----------------|----------3\0--0|~~~0-0-0-0-0-0--|---------------3|

E |----------------|----------------|----------------|----------------|
B |----------------|-----4-5-4------|----------------|----------------|
F#|---------------5|~~~5-------5-5--|---------------3|~~3-3-3-3-3-3-3-|
C#|~~~3-3-3-3-3-3--|---------------0|~~~0-0-0-0-0-0--|----------------|

E |----------------|----------------|----------------|----------------|
B |----------------|----------------|----------------|----------------|
F#|----------------|--------------3~|~~~3-3-3-3---3-5|~~~5-5-5-5---5--|
C#|3-3-3-3-3-3-3-3-|5-5-5-5-7-5-7---|-----------3----|-----------7---0|

E |----------------|----------------|----------------|----------------|
B |----------------|----------------|----------------|----------------|
F#|----------------|----------------|3-3-3-3-3-3-3-3-|3-3-3-3-3-3-3-3-|
C#|~~~0-0-0~~~0-0-3|~~~3-3-3-3-0-3~~|----------------|----------------|

E |----------------|---------------|----------------|----------------|
B |----------------|---------------|----------------|----------------|
F#|5-5-5-5-5-5-5-5-|6-6-6-6-6~~----|---------------3|~~~~~~~~~3-3-3--|
C#|----------------|-------------\0|~~~0-0-0~~~0~~~-|---------------3|

E |----------------|----------------|----------------|----------------|
B |----------------|----------------|----------------|----------------|
F#|---------------5|~~~~~~~~~5-5-5--|---------------3|~~~~~~~~~3-3-3--|
C#|~~~3-3-3~~~3~~~-|---------------0|~~~0-0-0~~~0~~~-|---------------3|

E |----------------|----------------|----------------|----------------|
B |----------------|----------------|----------------|----------------|
F#|----------------|---------3-----3|~~~3-3-3-3---3-5|~~~5-5-5-5---5--|
C#|~~~3-3-3-3-3-3-3|-5-5-5-5---3-0--|-----------3----|-----------7---0|

E |----------------|----------------|----------------|----------------|
B |----------------|----------------|----------------|----------------|
F#|----------------|----------------|3-3-3-3-3-3-3-3-|3-3-3-3-3-3-3-3-|
C#|~~~0-0-0~~~0-0-3|~~~3-3-3-3-0-3~~|----------------|----------------|

E |----------------|----------------|----------------|
B |----------------|----------------|----------------|
F#|5-5-5-5-5-5-5-5-|6-6-6-6-6-6-6-6-|----------------|
C#|----------------|----------------|----------------|

[OUTRO]
E |----------------|----------------|------------------|----------------|
B |----------------|----------------|------------------|----------------|
F#|----------------|----------------|-----------5-7----|----------------|
C#|---------------0|~~~0---0~~~0---0|~~~0---0-7-------0|~~~0---0~~~0---0|

E |------------------|----------------|------------------|----------------|
B |------------------|----------------|------------------|----------------|
F#|-----------5-7----|----------------|-----------5-7----|----------------|
C#|~~~0---0-7-------0|~~~0---0~~~0---0|~~~0---0-7-------0|~~~0---0~~~0---0|

E |---------------------|------------------------|----------------||
B |---------------------|------------------------|----------------||
F#|5--5--5--5----5--7---|-----5--5--5----5--7-~~~|~~~~~~\---------||
C#|------------7-------0|~~~0----------7---------|----------------||


| /  slide up
| \  slide down
| h  hammer-on
| p  pull-off
| ~  maintain the note
| +  harmonic
| x  Mute note
=============================================================================
comments
We did not receive enough feedback on this tab! Please rate:
print report bad tab
1 2 3 4 5
I want to post or [tab]
guest
You may want to rate the tab now too:
select rating
Please do not post tabs as comments. Select "correction" instead!