Oops, an error
Loading. Please wait.

Archaic Ep Tab

111 views 3 this week
no commentswrite comment
1 2 3 4 5
please rate
Autoscroll
+/-
esc
set tempo
stop
Contributor
Difficulty
Tabbers playing skills
novice
advanced
Hey! There's an official Ultimate Guitar app which is ideal
for learning songs when you're away from computer. Get the app
WARNING: You are trying to view
                                    content from Ultimate-Guitar.com
                                    in an unauthorized application,
                                    which is prohibited.

                                    Please use an official Ultimate
                                    Guitar Tabs application for iPhone,
                                    iPad or Android to access legitimate
                                    chords, guitar, bass, and drum tabs
                                    from Ultimate-Guitar.com database.

                                    Type "ultimate guitar tabs" in Apple
                                    App Store's or Android Market's
                                    search to find the application.
Rudimentary Peni
Archaic EP (2004)
Tabbed By ruker (Varuker@gmail.com)
Standard Tuning EADGBE

-------------    ----------------------------------------------------
Key:             Tracklist:
-------------    ----------------------------------------------------
. Palm Mute      1) One And All            7) The Curse
~ Vibrato        2) Suffer                 8) The Enlightened Dreamer
h Hammer-On      3) In Crematorium Flame   9) XN.H.S.
p Pull-Off       4) Lost                  10) Farewell Tomorrow
b Bend           5) The Rain              11) House Of The Void
r Release        6) Mercy Of Slumber      12) Rehearsal For Mortality
/ Slide Up       ----------------------------------------------------
\ Slide Down     
-------------

---------------------------------------------------------------------
                       1) One And All
---------------------------------------------------------------------

Riff A (0:00)     12x
||-------------------||
||*-----------------*||
||-------------------||
||--6-6-5-3-5-5-5-5--||
||*-6-6-5-3-5-5-5-5-*||
||--4-4-3-1-3-3-3-3--||


Riff B (0:23)      8x
||-------------------||
||*-----------------*||
||--6-6-5-3-5-5-5-5--||
||--6-6-5-3-5-5-5-5--||
||*-4-4-3-1-3-3-3-3-*||
||-------------------||


Riff A (0:38)     10x
||-------------------||
||*-----------------*||
||-------------------||
||--6-6-5-3-5-5-5-5--||
||*-6-6-5-3-5-5-5-5-*||
||--4-4-3-1-3-3-3-3--||


Riff B (0:56)     11x 
||-------------------|-----------------||
||*-----------------*|-----------------||
||--6-6-5-3-5-5-5-5--|-6-6-5-3-5-5-5\--||
||--6-6-5-3-5-5-5-5--|-6-6-5-3-5-5-5\--||
||*-4-4-3-1-3-3-3-3-*|-4-4-3-1-3-3-3\--||
||-------------------|-----------------||


---------------------------------------------------------------------
                         2) Suffer
---------------------------------------------------------------------

Riff A (0:04)                      4x
||-----------------------------------||
||*---------------------------------*||
||-----------------------------------||
||--7-7-5-5-3-3-2-2-7-7-5-5-3-3-2-2--||
||*-7-7-5-5-3-3-2-2-7-7-5-5-3-3-2-2-*||
||--5-5-3-3-1-1-0-0-5-5-3-3-1-1-0-0--||


Riff B (0:21)                      2x
||-----------------------------------||
||*---------------------------------*||
||--7-7-5-5-3-3-2-2-7-7-5-5-3-3-2-2--||
||--7-7-5-5-3-3-2-2-7-7-5-5-3-3-2-2--||
||*-5-5-3-3-1-1-0-0-5-5-3-3-1-1-0-0-*||
||-----------------------------------||


Riff A (0:30)                      3x
||-----------------------------------||
||*---------------------------------*||
||-----------------------------------||
||--7-7-5-5-3-3-2-2-7-7-5-5-3-3-2-2--||
||*-7-7-5-5-3-3-2-2-7-7-5-5-3-3-2-2-*||
||--5-5-3-3-1-1-0-0-5-5-3-3-1-1-0-0--||


Riff B (0:43)                      2x
||-----------------------------------|----------------||
||*---------------------------------*|----------------||
||--7-7-5-5-3-3-2-2-7-7-5-5-3-3-2-2--|----------------||
||--7-7-5-5-3-3-2-2-7-7-5-5-3-3-2-2--|-5~-------------||
||*-5-5-3-3-1-1-0-0-5-5-3-3-1-1-0-0-*|-5~-------------||
||-----------------------------------|-3~-------------||


---------------------------------------------------------------------
                    3) In Crematorium Flame
---------------------------------------------------------------------

Intro (0:00)   4x
||---------------||
||*-------------*||
||---------------||
||--4-----2------||
||*-4-----2-----*||
||--2-----0------||


Verse/Chorus (0:09)
||--------------------------------------------------------------|
||*-------------------------------------------------------------|
||--------------------------------------------------------------|
||--4-4-4-4-4-4-4-4-2-2-2-2-2-2-2-2-4-4-4-4-4-4-4-4-2-2-2-2-2-2-|
||*-4-4-4-4-4-4-4-4-2-2-2-2-2-2-2-2-4-4-4-4-4-4-4-4-2-2-2-2-2-2-|
||--2-2-2-2-2-2-2-2-0-0-0-0-0-0-0-0-2-2-2-2-2-2-2-2-0-0-0-0-0-0-|


|---------------------------------------------------------||
|--------------------------------------------------------*||
|---------------------------------------------------------||
|-6-6-4-4-------------4-----6-6-4-4-------------4---------||
|-4-4-2-2-7-7-6-6-2-2-4-----4-4-2-2-7-7-6-6-2-2-4--------*||
|---------5-5-4-4-0-0-2-------------5-5-4-4-0-0-2---------||


Intro (0:28)   4x
||---------------||
||*-------------*||
||---------------||
||--4-----2------||
||*-4-----2-----*||
||--2-----0------||


Chorus (0:37)
||--------------------------------------------------------------|
||*-------------------------------------------------------------|
||--------------------------------------------------------------|
||--4-4-4-4-4-4-4-4-2-2-2-2-2-2-2-2-4-4-4-4-4-4-4-4-2-2-2-2-2-2-|
||*-4-4-4-4-4-4-4-4-2-2-2-2-2-2-2-2-4-4-4-4-4-4-4-4-2-2-2-2-2-2-|
||--2-2-2-2-2-2-2-2-0-0-0-0-0-0-0-0-2-2-2-2-2-2-2-2-0-0-0-0-0-0-|


|---------------------------------------------------------||
|--------------------------------------------------------*||
|---------------------------------------------------------||
|-6-6-4-4-------------4-----6-6-4-4-------------4---------||
|-4-4-2-2-7-7-6-6-2-2-4-----4-4-2-2-7-7-6-6-2-2-4--------*||
|---------5-5-4-4-0-0-2-------------5-5-4-4-0-0-2---------||


Outro (0:56)
||--------------------------------------------------------||
||--------------------------------------------------------||
||--------------------------------------------------------||
||-6-6-4-4-------------4-----6-6-4-4-------------4--------||
||-4-4-2-2-7-7-6-6-2-2-4-----4-4-2-2-7-7-6-6-2-2-4--------||
||---------5-5-4-4-0-0-2-------------5-5-4-4-0-0-2--------||


---------------------------------------------------------------------
                          4) Lost
---------------------------------------------------------------------

Riff A (0:00)                    7x
||---------------------------------||
||*-------------------------------*||
||---------------------------------||
||--4-4-3-3-7-7-6-6-7-7-9-9-4------||
||*-4-4-3-3-7-7-6-6-7-7-9-9-4-----*||
||--2-2-1-1-5-5-4-4-5-5-7-7-2------||


Riff B (0:20)
||---------------------------------------------------------------------------------||
||---------------------------------------------------------------------------------||
||-------------------------6-6-6-6-----6-6-7-7-7-7---------6-6-6-6-----6-6-7-7-7-7-||
||-4-4-3-3-7-7-6-6-7-7-9-9-6-6-6-6-9-9-6-6-7-7-7-7-7-7-9-9-6-6-6-6-9-9-6-6-7-7-7-7-||
||-4-4-3-3-7-7-6-6-7-7-9-9-4-4-4-4-9-9-4-4-5-5-5-5-7-7-9-9-4-4-4-4-9-9-4-4-5-5-5-5-||
||-2-2-1-1-5-5-4-4-5-5-7-7---------7-7-------------5-5-7-7---------7-7-------------||


Riff A (0:30)                    5x
||---------------------------------||
||*-------------------------------*||
||---------------------------------||
||--4-4-3-3-7-7-6-6-7-7-9-9-4------||
||*-4-4-3-3-7-7-6-6-7-7-9-9-4-----*||
||--2-2-1-1-5-5-4-4-5-5-7-7-2------||


Riff B (0:50)
||---------------------------------------------------------------------------------||
||---------------------------------------------------------------------------------||
||-------------------------6-6-6-6-----6-6-7-7-7-7---------6-6-6-6-----6-6-7-7-7-7-||
||-4-4-3-3-7-7-6-6-7-7-9-9-6-6-6-6-9-9-6-6-7-7-7-7-7-7-9-9-6-6-6-6-9-9-6-6-7-7-7-7-||
||-4-4-3-3-7-7-6-6-7-7-9-9-4-4-4-4-9-9-4-4-5-5-5-5-7-7-9-9-4-4-4-4-9-9-4-4-5-5-5-5-||
||-2-2-1-1-5-5-4-4-5-5-7-7---------7-7-------------5-5-7-7---------7-7-------------||


Riff A (1:00)
||---------------------------------------------------------------------||
||---------------------------------------------------------------------||
||---------------------------------------------------------------------||
||-4-4-3-3-7-7-6-6-7-7-9-9-4------4-4-3-3-7-7-6-6-7-7-9-9-4~-----------||
||-4-4-3-3-7-7-6-6-7-7-9-9-4------4-4-3-3-7-7-6-6-7-7-9-9-4~-----------||
||-2-2-1-1-5-5-4-4-5-5-7-7-2------2-2-1-1-5-5-4-4-5-5-7-7-2~-----------||


---------------------------------------------------------------------
                         5) The Rain
---------------------------------------------------------------------

Riff A (0:01)
||--------------------------------------------------|
||*-------------------------------------------------|
||--6-6-6-6-6-6-7-6-4-4-4-4-4-4-6-4-2-2-2-2-2-2-4-2-|
||--6-6-6-6-6-6-7-6-4-4-4-4-4-4-6-4-2-2-2-2-2-2-4-2-|
||*-4-4-4-4-4-4-5-4-2-2-2-2-2-2-4-2-0-0-0-0-0-0-2-0-|
||--------------------------------------------------|

                                                 6x
|--------------------------------------------------||
|-------------------------------------------------*||
|-------------------------------------4-4-6-6-9-7--||
|-6-6-6-6-6-6-7-6-4-4-4-4-4-4-6-6-7-7-4-4-6-6-9-7--||
|-6-6-6-6-6-6-7-6-4-4-4-4-4-4-6-6-7-7-2-2-4-4-7-5-*||
|-4-4-4-4-4-4-5-4-2-2-2-2-2-2-4-4-5-5--------------||


Riff B (1:18)
||-------------------------------------------------||
||-------------------------------------------------||
||-6-6-6-6-6-6-6-6---------------------4-4-6-6-9-7-||
||-6-6-6-6-6-6-6-6-4-4-4-4-4-4-6-6-7-7-4-4-6-6-9-7-||
||-4-4-4-4-4-4-4-4-4-4-4-4-4-4-6-6-7-7-2-2-4-4-7-5-||
||-----------------2-2-2-2-2-2-4-4-5-5-------------||


Riff A (1:24)
||-------------------------------------------------|
||-------------------------------------------------|
||-6-6-6-6-6-6-7-6-4-4-4-4-4-4-6-4-2-2-2-2-2-2-4-2-|
||-6-6-6-6-6-6-7-6-4-4-4-4-4-4-6-4-2-2-2-2-2-2-4-2-|
||-4-4-4-4-4-4-5-4-2-2-2-2-2-2-4-2-0-0-0-0-0-0-2-0-|
||-------------------------------------------------|


|---------------------------------||
|---------------------------------||
|---------------------------------||
|-6-6-6-6-6-6-7-6-4~--------------||
|-6-6-6-6-6-6-7-6-4~--------------||
|-4-4-4-4-4-4-5-4-2~--------------||


---------------------------------------------------------------------
                      6) Mercy of Slumber
---------------------------------------------------------------------

Intro (0:00)            2x
||------------------------||
||*----------------------*||
||-----------4-----5------||
||--5--2-----4-----5------||
||*-5--2-----2-----3-----*||
||--3--0------------------||


Riff A (0:08)                  22x
||--------------------------------||
||*------------------------------*||
||-------------4-4-4-4-5-5-5-5-5--||
||--5--2-2-2-2-4-4-4-4-5-5-5-5-5--||
||*-5--2-2-2-2-2-2-2-2-3-3-3-3-3-*||
||--3--0-0-0-0--------------------||


Outro (1:38)
||-----------------||
||-----------------||
||-----------------||
||-5--2------------||
||-5--2------------||
||-3--0------------||


---------------------------------------------------------------------
                         7) The Curse
---------------------------------------------------------------------

Riff A (0:08)                      6x
||-----------------------------------||
||*---------------------------------*||
||-----------------------------------||
||--5-5-5-3-2-2-2-2-3-3-3-5-6-6-6-6--||
||*-5-5-5-3-2-2-2-2-3-3-3-5-6-6-6-6-*||
||--3-3-3-1-0-0-0-0-1-1-1-3-4-4-4-4--||


Riff B (0:32)                              4x
||-------------------------------------------||
||*-----------------------------------------*||
||--5-5-5-5-8-8-8-8-10-10-10-10-12-12-12-12--||
||--5-5-5-5-8-8-8-8-10-10-10-10-12-12-12-12--||
||*-3-3-3-3-6-6-6-6-8--8--8--8--10-10-10-10-*||
||-------------------------------------------||


Riff A (0:48)                      6x
||-----------------------------------||
||*---------------------------------*||
||-----------------------------------||
||--5-5-5-3-2-2-2-2-3-3-3-5-6-6-6-6--||
||*-5-5-5-3-2-2-2-2-3-3-3-5-6-6-6-6-*||
||--3-3-3-1-0-0-0-0-1-1-1-3-4-4-4-4--||


Riff B (1:12)                              4x
||-------------------------------------------|------||
||*-----------------------------------------*|------||
||--5-5-5-5-8-8-8-8-10-10-10-10-12-12-12-12--|-5----||
||--5-5-5-5-8-8-8-8-10-10-10-10-12-12-12-12--|-5----||
||*-3-3-3-3-6-6-6-6-8--8--8--8--10-10-10-10-*|-3----||
||-------------------------------------------|------||


---------------------------------------------------------------------
                    8) The Enlightened Dreamer
---------------------------------------------------------------------

Riff A (0:09)                      6x
||-----------------------------------||
||*---------------------------------*||
||-----------------------------------||
||--7-7-5-5-3-3-5-5-2-2-2-2-2-2-5-5--||
||*-7-7-5-5-3-3-5-5-2-2-2-2-2-2-5-5-*||
||--5-5-3-3-1-1-3-3-0-0-0-0-0-0-3-3--||


Fill A (0:29)
||-----------------||
||-----------------||
||-----------------||
||-7-7-5-5-3-3-5-5-||
||-7-7-5-5-3-3-5-5-||
||-5-5-3-3-1-1-3-3-||


Riff B (0:32)                          2x
||---------------------------------------||
||*-------------------------------------*||
||--9-9-9-9-9-9-12-12-9-9-11-11-7-7-7-7--||
||--9-9-9-9-9-9-12-12-9-9-11-11-7-7-7-7--||
||*-7-7-7-7-7-7-10-10-7-7-9--9--5-5-5-5-*||
||---------------------------------------||


Fill B (0:40)
||-----------------||
||-----------------||
||-----------------||
||-2-2-2-2-2-2-2-2-||
||-2-2-2-2-2-2-2-2-||
||-0-0-0-0-0-0-0-0-||


Riff A (0:42)                      3x
||-----------------------------------||
||*---------------------------------*||
||-----------------------------------||
||--7-7-5-5-3-3-5-5-2-2-2-2-2-2-5-5--||
||*-7-7-5-5-3-3-5-5-2-2-2-2-2-2-5-5-*||
||--5-5-3-3-1-1-3-3-0-0-0-0-0-0-3-3--||


Fill A (0:54)
||-----------------||
||-----------------||
||-----------------||
||-7-7-5-5-3-3-5-5-||
||-7-7-5-5-3-3-5-5-||
||-5-5-3-3-1-1-3-3-||


Riff B (0:56)                          2x
||---------------------------------------||
||*-------------------------------------*||
||--9-9-9-9-9-9-12-12-9-9-11-11-7-7-7-7--||
||--9-9-9-9-9-9-12-12-9-9-11-11-7-7-7-7--||
||*-7-7-7-7-7-7-10-10-7-7-9--9--5-5-5-5-*||
||---------------------------------------||


Outro (1:04)
||----------||
||----------||
||----------||
||-2~-------||
||-2~-------||
||-0~-------||


---------------------------------------------------------------------
                           9) XN.H.S.
---------------------------------------------------------------------

Intro (0:02)
||-----------------------||
||-----------------------||
||-----------------------||
||-2---------------------||
||-2---------------------||
||-0---------------------||


Riff A (0:06)
||-----------------------------------------||
||*---------------------------------------*||
||------------------------5-4-5-4-5-4-5-4--||
||--2-2-2--5-5-5-5-4-4-4-------------------||
||*-2-2-2--5-5-5-5-4-4-4------------------*||
||--0-0-0--3-3-3-3-2-2-2-------------------||


Chorus (0:15)                              3x
||-------------------------------------------|
||*-----------------------------------------*|
||--------------------------5-5-5-5-5-5-5-5--|
||--2-2-2-2-5-5-5-5-4-4-4-4-5-5-5-5-5-5-5-5--|
||*-2-2-2-2-5-5-5-5-4-4-4-4-3-3-3-3-3-3-3-3-*|
||--0-0-0-0-3-3-3-3-2-2-2-2------------------|


|-----------------------------------------||
|-----------------------------------------||
|-------------------------5-4-5-4-5-4-5-4-||
|-2-2-2-2-5-5-5-5-4-4-4-4-----------------||
|-2-2-2-2-5-5-5-5-4-4-4-4-----------------||
|-0-0-0-0-3-3-3-3-2-2-2-2-----------------||


Riff A (0:34)
||---------------------------------------||
||---------------------------------------||
||-----------------------5-4-5-4-5-4-5-4-||
||-2-2-2--5-5-5-5-4-4-4------------------||
||-2-2-2--5-5-5-5-4-4-4------------------||
||-0-0-0--3-3-3-3-2-2-2------------------||


|------------------------------------------------------||
|------------------------------------------------------||
|-----------------------5p4h5p4h5p4h5p4h5p4h5p4h5p4h5--||
|-2-2-2--5-5-5-5-4-4-4---------------------------------||
|-2-2-2--5-5-5-5-4-4-4---------------------------------||
|-0-0-0--3-3-3-3-2-2-2---------------------------------||


Chorus (0:42)                              6x
||-------------------------------------------||
||*-----------------------------------------*||
||--------------------------5-5-5-5-5-5-5-5--||
||--2-2-2-2-5-5-5-5-4-4-4-4-5-5-5-5-5-5-5-5--||
||*-2-2-2-2-5-5-5-5-4-4-4-4-3-3-3-3-3-3-3-3-*||
||--0-0-0-0-3-3-3-3-2-2-2-2------------------||


Outro (1:09)
||-----------------------||
||-----------------------||
||-----------------------||
||-2---------------------||
||-2---------------------||
||-0---------------------||


---------------------------------------------------------------------
                      10) Farewell Tomorrow
---------------------------------------------------------------------

The Only Riff (0:02)               8x
||-----------------------------------|-------------||
||*---------------------------------*|-------------||
||--------------5-5-3-3-2-2----------|-------------||
||--5-5-3-3-2-2-5-5-3-3-2-2-5-5-3-3--|-5~----------||
||*-5-5-3-3-2-2-3-3-1-1-0-0-5-5-3-3-*|-5~----------||
||--3-3-1-1-0-0-------------3-3-1-1--|-3~----------||


---------------------------------------------------------------------
                      11) House Of The Void
---------------------------------------------------------------------

Riff A (0:01)                                                      4x
||-------------------------------------------------------------------||
||*-----------------------------------------------------------------*||
||-------------------------------------------------------------------||
||--6-6-6-6-6-6-6-6-2-2-2-2-2-2-2-2-4-4-4-4-4-4-4-4-4-4-4-4-4-4-4-4--||
||*-6-6-6-6-6-6-6-6-2-2-2-2-2-2-2-2-4-4-4-4-4-4-4-4-4-4-4-4-4-4-4-4-*||
||--4-4-4-4-4-4-4-4-0-0-0-0-0-0-0-0-2-2-2-2-2-2-2-2-2-2-2-2-2-2-2-2--||


Riff B (0:20)                                                      2x
||-------------------------------------------------------------------||
||*-----------------------------------------------------------------*||
||----------------------------------8-8-8-8-8-8-8-8-8-8-8-8-8-8-8-8--||
||--6-6-6-6-6-6-6-6-9-9-9-9-9-9-9-9-8-8-8-8-8-8-8-8-8-8-8-8-8-8-8-8--||
||*-6-6-6-6-6-6-6-6-9-9-9-9-9-9-9-9-6-6-6-6-6-6-6-6-6-6-6-6-6-6-6-6-*||
||--4-4-4-4-4-4-4-4-7-7-7-7-7-7-7-7----------------------------------||


Riff A (0:29)                                                      2x
||-------------------------------------------------------------------||
||*-----------------------------------------------------------------*||
||-------------------------------------------------------------------||
||--6-6-6-6-6-6-6-6-2-2-2-2-2-2-2-2-4-4-4-4-4-4-4-4-4-4-4-4-4-4-4-4--||
||*-6-6-6-6-6-6-6-6-2-2-2-2-2-2-2-2-4-4-4-4-4-4-4-4-4-4-4-4-4-4-4-4-*||
||--4-4-4-4-4-4-4-4-0-0-0-0-0-0-0-0-2-2-2-2-2-2-2-2-2-2-2-2-2-2-2-2--||


Riff B (0:38)                                                      7x
||-------------------------------------------------------------------|
||*-----------------------------------------------------------------*|
||----------------------------------8-8-8-8-8-8-8-8-8-8-8-8-8-8-8-8--|
||--6-6-6-6-6-6-6-6-9-9-9-9-9-9-9-9-8-8-8-8-8-8-8-8-8-8-8-8-8-8-8-8--|
||*-6-6-6-6-6-6-6-6-9-9-9-9-9-9-9-9-6-6-6-6-6-6-6-6-6-6-6-6-6-6-6-6-*|
||--4-4-4-4-4-4-4-4-7-7-7-7-7-7-7-7----------------------------------|


|--------------------------------------||
|--------------------------------------||
|---------------------------------8\---||
|-6-6-6-6-6-6-6-6-9-9-9-9-9-9-9-9-8\---||
|-6-6-6-6-6-6-6-6-9-9-9-9-9-9-9-9-6\---||
|-4-4-4-4-4-4-4-4-7-7-7-7-7-7-7-7------||


---------------------------------------------------------------------
                    12) Rehearsal For Mortality
---------------------------------------------------------------------

Riff A (0:00)                                                      5x
||-------------------------------------------------------------------||
||*-----------------------------------------------------------------*||
||-------------------------------------------------------------------||
||--2-2-2-2-2-2-55552-2-2-2-2-2-55552-2-2-2-2-2-55554-4-4-4-4-4-5-4--||
||*-2-2-2-2-2-2-55552-2-2-2-2-2-55552-2-2-2-2-2-55554-4-4-4-4-4-5-4-*||
||--0-0-0-0-0-0-33330-0-0-0-0-0-33330-0-0-0-0-0-33332-2-2-2-2-2-3-2--||


Riff B (0:52)
||-----------------------------------------------------------------|
||-----------------------------------------------------------------|
||-----------------------------------------------------------------|
||-2-2-2-2-2-2-55552-2-2-2-2-2-55552-2-2-2-2-2-55557-7-7-7-7-7-5-4-|
||-2-2-2-2-2-2-55552-2-2-2-2-2-55552-2-2-2-2-2-55557-7-7-7-7-7-5-4-|
||-0-0-0-0-0-0-33330-0-0-0-0-0-33330-0-0-0-0-0-33335-5-5-5-5-5-3-2-|


|-----------------------------------------------------------------------||
|-----------------------------------------------------------------------||
|-----------------------------------------------------------------------||
|-2-2-2-2-2-2-55552-2-2-2-2-2-55552-2-2-2-2-2-55557-7-7-7-7-7-5-4-2-----||
|-2-2-2-2-2-2-55552-2-2-2-2-2-55552-2-2-2-2-2-55557-7-7-7-7-7-5-4-2-----||
|-0-0-0-0-0-0-33330-0-0-0-0-0-33330-0-0-0-0-0-33335-5-5-5-5-5-3-2-0-----||
comments
We did not receive enough feedback on this tab! Please rate:
print report bad tab
1 2 3 4 5
I want to post or [tab]
guest
You may want to rate the tab now too:
select rating
Please do not post tabs as comments. Select "correction" instead!