Oops, an error
Loading. Please wait.

All That Lasts Tab

ver1
ver1

Whole song

Interactive

More versions @911Tabs.com
2,323 views 6 this week
no commentswrite comment
1 2 3 4 5
please rate
Autoscroll
+/-
esc
set tempo
stop
Contributor
Hey! There's an official Ultimate Guitar app which is ideal
for learning songs when you're away from computer. Get the app
WARNING: You are trying to view
                                    content from Ultimate-Guitar.com
                                    in an unauthorized application,
                                    which is prohibited.

                                    Please use an official Ultimate
                                    Guitar Tabs application for iPhone,
                                    iPad or Android to access legitimate
                                    chords, guitar, bass, and drum tabs
                                    from Ultimate-Guitar.com database.

                                    Type "ultimate guitar tabs" in Apple
                                    App Store's or Android Market's
                                    search to find the application.
Tuning: HALF-STEP DOWN!

Don't follow the strumming exactly as it is typed, it's just to show the accents...but 
of it is in order and shows the exact order to play everything, so just read it straight 
while you play along.

Comment if you see anything I missed!


Guitar 1

Intro/Verse
-----------
  "All this waiting..."
e|------------------------------------------------|
B|------------------------------------------------|
G|----------4------2-------------2------4---------|
D|---2----4-4--4-2-2--2---2----2-2--2-4-4--4---2--|
A|-2-2--2-2-2--2-0-0--0-2-2--2-0-0--0-2-2--2-2-2--|
E|-0-0--0---------------0-0--0---------------0-0--|
   .    . .    . .    . .    . .    . .    . .
      "I know it seems..."
e|-----------------------------------------------------------------|
B|-----------------------------------------------------------------|
G|-----4----6-6-6-------------9-9-9--------------------------------|
D|-----4--4-6-6-6--6-9-9-9--9-9-9-9--9-9-9-9----7-7-7------7-7-7-7-|
A|-222-2--2-4-4-4--4-6-6-6--6-7-7-7--7-9-9-9--9-7-7-7------7-7-7-7-|
E|-------------------------------------7-7-7--7-5-5-5-5555-5-5-5-5-|
   ...                                                ....
"I gave all my reasons..."
e|------------------------------------------------|
B|------------------------------------------------|
G|----------4------2-------------2------4---------|
D|---2----4-4--4-2-2--2---2----2-2--2-4-4--4---2--|
A|-2-2--2-2-2--2-0-0--0-2-2--2-0-0--0-2-2--2-2-2--|
E|-0-0--0---------------0-0--0---------------0-0--|
   .    . .    . .    . .    . .    . .    . .
     "Excuses evolve..."
e|-----------------------------------------------------------------|
B|-----------------------------------------------------------------|
G|-----4----6-6-6-------------9-9-9--------------------------------|
D|-----4--4-6-6-6--6-9-9-9--9-9-9-9--9-9-9-9----7-7-7------7-7-7-7-|
A|-222-2--2-4-4-4--4-6-6-6--6-7-7-7--7-9-9-9--9-7-7-7------7-7-7-7-|
E|-------------------------------------7-7-7--7-5-5-5-5555-5-5-5-5-|
   ...                                                ....
Pre-Chorus
----------
"I'll take it day by day..."
e|------------------------------------------------|
B|------------------------------------------------|
G|-6~---------4~----------------------------------|
D|-x----------x-----------7~----------2~----------|
A|-4~---------2~----------x-----------2~----------|
E|------------------------5~----------0~----------|

e|------------------------------------------------|
B|------------------------------------------------|
G|-6~---------4~----------------------4~----------|
D|-x----------x-----------7~----------4~----------|
A|-4~---------2~----------x-----------2~----^-----|
E|------------------------5~------------Pickslide-|

Chorus
------
  "Understand..."
e|--------------------------------------------------|
B|--------------------------------------------------|
G|-2-2-2-4-4-4-6-6-6-6-6-6--2-2-2-2-2-2-------------|
D|-2-2-2-4-4-4-6-6-6-6-6-6--2-2-2-2-2-2-2-2-2-2-2-2-|
A|-0-0-0-2-2-2-4-4-4-4-4-4--0-0-0-0-0-0-2-2-2-2-2-2-|
E|--------------------------------------0-0-0-0-0-0-|

"We're free at last..."
e|--------------------------------------------------|
B|--------------------------------------------------|
G|-------4-4-4-2-2-2-2------2-2-2-2-2-2-4-4-4-4-4-4-|
D|-2-2-2-4-4-4-2-2-2-2------2-2-2-2-2-2-4-4-4-4-4-4-|
A|-2-2-2-2-2-2-0-0-0-0-0000-0-0-0-0-0-0-2-2-2-2-2-2-|
E|-0-0-0--------------------------------------------|
                       ....
"All it means..."
e|--------------------------------------------------|
B|--------------------------------------------------|
G|-2-2-2-4-4-4-6-6-6-6-6-6--2-2-2-2-2-2-------------|
D|-2-2-2-4-4-4-6-6-6-6-6-6--2-2-2-2-2-2-2-2-2-2-2-2-|
A|-0-0-0-2-2-2-4-4-4-4-4-4--0-0-0-0-0-0-2-2-2-2-2-2-|
E|--------------------------------------0-0-0-0-0-0-|

"All that lasts..."
e|--------------------------------------------------|
B|--------------------------------------------------|
G|-------4-4-4-2-2-2-2------2-2-2-2-2-2-4-4-4-4-4-4-|
D|-2-2-2-4-4-4-2-2-2-2------2-2-2-2-2-2-4-4-4-4-4-4-|
A|-2-2-2-2-2-2-0-0-0-0-0000-0-0-0-0-0-0-2-2-2-2-2-2-|
E|-0-0-0--------------------------------------------|
                       ....
Post Chorus
--------------------------------------------|
e|------------------------------------------|
B|------------------9h10r9-10-9-9-10-12~----|
G|--------8-9~---99-------9----9------------|
D|-/6--9------------------------------------|
A|------------------------------------------|
E|------------------------------------------|
                 ..       .    .
e|----------------------------------------------------------|
B|-9-----10-----12-----10-----9h10r9--9---------------------|
G|---999----999----999----999-------11---9--8---------------|
D|---------------------------------------------9-11-9--7--6-|
A|----------------------------------------------------------|
E|----------------------------------------------------------|
     ...    ...    ...    ...
Verse
-----
"Living life with..."
e|-----------------------------|
B|-----------------------------|
G|-----------------------------|
D|-----------------------------|
A|-7~~~------------------------|
E|-----------------------------|
"It just makes it..."
e|-----------------------------------------------------------------|
B|-----------------------------------------------------------------|
G|-----4----6-6-6-------------9-9-9--------------------------------|
D|-----4--4-6-6-6--6-9-9-9--9-9-9-9--9-9-9-9----7-7-7------7-7-7-7-|
A|-222-2--2-4-4-4--4-6-6-6--6-7-7-7--7-9-9-9--9-7-7-7------7-7-7-7-|
E|-------------------------------------7-7-7--7-5-5-5-5555-5-5-5-5-|
   ...                                                ....
"So raise your voice..."
e|------------------------------------------------|
B|------------------------------------------------|
G|------------------------------------------------|
D|--------4-4--4-2-2--2--------2-2--2-4-4--4------|
A|-2-2--2-2-2--2-0-0--0-2-2--2-0-0--0-2-2--2-2-2--|
E|-0-0--0---------------0-0--0---------------0-0--|
   . .  . . .  . . .  . . .  . . .  . . .  . . .
     "I know this how..."
e|-----------------------------------------------------------------|
B|-----------------------------------------------------------------|
G|-----4----6-6-6-------------9-9-9--------------------------------|
D|-----4--4-6-6-6--6-9-9-9--9-9-9-9--9-9-9-9----7-7-7------7-7-7-7-|
A|-222-2--2-4-4-4--4-6-6-6--6-7-7-7--7-9-9-9--9-7-7-7------7-7-7-7-|
E|-------------------------------------7-7-7--7-5-5-5-5555-5-5-5-5-|
   ...                                                ....
Pre-Chorus
----------
"I'll take it day by day..."
e|------------------------------------------------|
B|------------------------------------------------|
G|-6~---------4~----------------------------------|
D|-x----------x-----------7~----------2~----------|
A|-4~---------2~----------x-----------2~----------|
E|------------------------5~----------0~----------|

e|------------------------------------------------|
B|------------------------------------------------|
G|-6~---------4~----------------------4~----------|
D|-x----------x-----------7~----------4~----------|
A|-4~---------2~----------x-----------2~----^-----|
E|------------------------5~------------Pickslide-|

Chorus
------
  "Understand..."
e|--------------------------------------------------|
B|--------------------------------------------------|
G|-2-2-2-4-4-4-6-6-6-6-6-6--2-2-2-2-2-2-------------|
D|-2-2-2-4-4-4-6-6-6-6-6-6--2-2-2-2-2-2-2-2-2-2-2-2-|
A|-0-0-0-2-2-2-4-4-4-4-4-4--0-0-0-0-0-0-2-2-2-2-2-2-|
E|--------------------------------------0-0-0-0-0-0-|

"We're free at last..."
e|--------------------------------------------------|
B|--------------------------------------------------|
G|-------4-4-4-2-2-2-2------2-2-2-2-2-2-4-4-4-4-4-4-|
D|-2-2-2-4-4-4-2-2-2-2------2-2-2-2-2-2-4-4-4-4-4-4-|
A|-2-2-2-2-2-2-0-0-0-0-0000-0-0-0-0-0-0-2-2-2-2-2-2-|
E|-0-0-0--------------------------------------------|
                       ....
"All it means..."
e|--------------------------------------------------|
B|--------------------------------------------------|
G|-2-2-2-4-4-4-6-6-6-6-6-6--2-2-2-2-2-2-------------|
D|-2-2-2-4-4-4-6-6-6-6-6-6--2-2-2-2-2-2-2-2-2-2-2-2-|
A|-0-0-0-2-2-2-4-4-4-4-4-4--0-0-0-0-0-0-2-2-2-2-2-2-|
E|--------------------------------------0-0-0-0-0-0-|

"All that lasts..."
e|--------------------------------------------------|
B|--------------------------------------------------|
G|-------4-4-4-2-2-2-2------2-2-2-2-2-2-4-4-4-4-4-4-|
D|-2-2-2-4-4-4-2-2-2-2------2-2-2-2-2-2-4-4-4-4-4-4-|
A|-2-2-2-2-2-2-0-0-0-0-0000-0-0-0-0-0-0-2-2-2-2-2-2-|
E|-0-0-0--------------------------------------------|
                       ....
Solo
----
e|--------------------------------------------------|
B|--------------------------------------------------|
G|-2-2-2-4-4-4-6-6-6-6-6-6--2-2-2-2-2-2-------------|
D|-2-2-2-4-4-4-6-6-6-6-6-6--2-2-2-2-2-2-2-2-2-2-2-2-|
A|-0-0-0-2-2-2-4-4-4-4-4-4--0-0-0-0-0-0-2-2-2-2-2-2-|
E|--------------------------------------0-0-0-0-0-0-|

e|--------------------------------------------------|
B|--------------------------------------------------|
G|-------4-4-4-2-2-2-2------2-2-2-2-2-2-4-4-4-4-4-4-|
D|-2-2-2-4-4-4-2-2-2-2------2-2-2-2-2-2-4-4-4-4-4-4-|
A|-2-2-2-2-2-2-0-0-0-0-0000-0-0-0-0-0-0-2-2-2-2-2-2-|
E|-0-0-0--------------------------------------------|
                       ....
Bridge
------
 "This is a lesson..."
e|-------------------------------------------|
B|-------------------------------------------|
G|---------4-2~-------4---------4-2~-------4-|
D|-2~------4-2~-------4-2~------4-2~-------4-|
A|-2~------2-0~-------2-2~------2-0~-------2-|
E|-0~-------------------0~-------------------|

e|------------------------------------------|
B|------------------------------------------|
G|-6~------4-2~-------4---------4-2-2-2-2-2x|
D|-x-------x-x--------x-2~------4-2-2-2-2-2x|
A|-4~------2-0~-------2-2~------2-0-0-0-0-0x|
E|----------------------0~------------------|

Chorus
------
  "Understand..."
e|--------------------------------------------------|
B|--------------------------------------------------|
G|-2-2-2-4-4-4-6-6-6-6-6-6--2-2-2-2-2-2-------------|
D|-2-2-2-4-4-4-6-6-6-6-6-6--2-2-2-2-2-2-2-2-2-2-2-2-|
A|-0-0-0-2-2-2-4-4-4-4-4-4--0-0-0-0-0-0-2-2-2-2-2-2-|
E|--------------------------------------0-0-0-0-0-0-|

"We're free at last..."
e|--------------------------------------------------|
B|--------------------------------------------------|
G|-------4-4-4-2-2-2-2------2-2-2-2-2-2-4-4-4-4-4-4-|
D|-2-2-2-4-4-4-2-2-2-2------2-2-2-2-2-2-4-4-4-4-4-4-|
A|-2-2-2-2-2-2-0-0-0-0-0000-0-0-0-0-0-0-2-2-2-2-2-2-|
E|-0-0-0--------------------------------------------|
                       ....
"All it means..."
e|--------------------------------------------------|
B|--------------------------------------------------|
G|-2-2-2-4-4-4-6-6-6-6-6-6--2-2-2-2-2-2-------------|
D|-2-2-2-4-4-4-6-6-6-6-6-6--2-2-2-2-2-2-2-2-2-2-2-2-|
A|-0-0-0-2-2-2-4-4-4-4-4-4--0-0-0-0-0-0-2-2-2-2-2-2-|
E|--------------------------------------0-0-0-0-0-0-|

"All that lasts..."
e|--------------------------------------------------|
B|--------------------------------------------------|
G|-------4-4-4-2-2-2-2------2-2-2-2-2-2-4-4-4-4-4-4-|
D|-2-2-2-4-4-4-2-2-2-2------2-2-2-2-2-2-4-4-4-4-4-4-|
A|-2-2-2-2-2-2-0-0-0-0-0000-0-0-0-0-0-0-2-2-2-2-2-2-|
E|-0-0-0--------------------------------------------|
                       ....
Outro
-----
e|----------------------------------------|
B|-9-----10-----12-----10-----9h10r9------|
G|---999----999----999----999--------11-9-|
D|----------------------------------------|
A|----------------------------------------|
E|----------------------------------------|
     ...    ...    ...    ...

e|----------------------------------------|
B|-9-----10-----12-----10-----9h10r9------|
G|---999----999----999----999--------11-9-|
D|----------------------------------------|
A|----------------------------------------|
E|----------------------------------------|
     ...    ...    ...    ...

e|----------------------------------------|
B|-9-----10-----12-----10-----9h10r9------|
G|---999----999----999----999--------11-9-|
D|----------------------------------------|
A|----------------------------------------|
E|----------------------------------------|
     ...    ...    ...    ...
e|---------------------------------|
B|---------------------------------|
G|---------------------------------|
D|-2-2x---2-2x---2-2x--------------|
A|-2-2x---2-2x---2-2x--------------|
E|-0-0x---0-0x---0-0x--------------|
   . .    . .    . .


Guitar 2

(Silent for intro)

Verse
-----
      "I know it seems..."
e|----------------------------------------------------------------------|
B|----------------------------------------------------------------------|
G|-----8--8-9-9-9--9111111-11131313-13161616-16181818----------18181818-|
D|-----x--x-x-x-x--x-x-x-x--x-x-x-x--x-x-x-x--x-x-x-x-----------x-x-x-x-|
A|-666-6--6-7-7-7--7-9-9-9--9111111-11141414-14161616-16161616-16161616-|
E|----------------------------------------------------------------------|
   ...                                                 . . . .
"I gave all my reasons..."
e|------------------------------------------------|
B|------------------------------------------------|
G|----------4------2-------------2------4---------|
D|---2----4-4--4-2-2--2---2----2-2--2-4-4--4---2--|
A|-2-2--2-2-2--2-0-0--0-2-2--2-0-0--0-2-2--2-2-2--|
E|-0-0--0---------------0-0--0---------------0-0--|
   .    . .    . .    . .    . .    . .    . .
     "Excuses evolve..."
e|----------------------------------------------------------------------|
B|----------------------------------------------------------------------|
G|-----8--8-9-9-9--9111111-11131313-13161616-16181818----------18181818-|
D|-----x--x-x-x-x--x-x-x-x--x-x-x-x--x-x-x-x--x-x-x-x-----------x-x-x-x-|
A|-666-6--6-7-7-7--7-9-9-9--9111111-11141414-14161616-16161616-16161616-|
E|----------------------------------------------------------------------|
   ...                                                 . . . .

Pre-Chorus
----------
"I'll take it day by day..."
e|----------------------------------------------------------------|
B|----------------------------------------------------------------|
G|-9~---------8~----------6~----------------------6/9----9/11-13~-|
D|----------------------------------4---4/6-9-6-9-----11----------|
A|------------------------------------7---------------------------|
E|----------------------------------------------------------------|
                                    . .     . . .      .
e|------------------------------------------------|
B|------------------------------------------------|
G|-9~---------8~----------6-----------4-4-4-4-4-4-|
D|------------------------------------4-4-4-4-4-4-|
A|------------------------------------2-2-2-2-2-2-|
E|------------------------------------------------|

Chorus
------
  "Understand..."
e|-12----11----9-----------------------|
B|----12----12---9--9-10---10-12----12-|
G|-----------------------9-------9-----|
D|-------------------------------------|
A|-------------------------------------|
E|-------------------------------------|
"We're free at last..."
e|-12----11----12--------12-----12-11-----11-|
B|----12----12----10--10----10--------12-----|
G|-------------------------------------------|
D|-------------------------------------------|
A|-------------------------------------------|
E|-------------------------------------------|
  "All it means..."
e|-12----11----9-----------------------|
B|----12----12---9--9-10---10-12----12-|
G|-----------------------9-------9-----|
D|-------------------------------------|
A|-------------------------------------|
E|-------------------------------------|
"All that lasts..."
e|-12----11----12--------12-----12-11-----11-|
B|----12----12----10--10----10--------12-----|
G|-------------------------------------------|
D|-------------------------------------------|
A|-------------------------------------------|
E|-------------------------------------------|

Post-Chorus
--------------------------------------------------|
e|------------------------------------------------|
B|-------------------12h14r12--14-12--12-14-17~---|
G|----8-11-13~---1313--------13-----13------------|
D|-/9---------------------------------------------|
A|------------------------------------------------|
E|------------------------------------------------|
                  . .         .      .
e|--------------------------------------------------------------------|
B|-12------14------17------14------12h14r12--12-----------------------|
G|---131313--131313--131313--131313--------14---13--11--8-9-8---------|
D|-------------------------------------------------------------11--9--|
A|--------------------------------------------------------------------|
E|--------------------------------------------------------------------|
      . . .   . . .   . . .   . . .
Verse
-----
"Living life with..."
e|-----------------------------|
B|-----------------------------|
G|-----------------------------|
D|-6~~~------------------------|
A|-----------------------------|
E|-----------------------------|
      "It just makes it..."
e|----------------------------------------------------------------------|
B|----------------------------------------------------------------------|
G|-----8--8-9-9-9--9111111-11131313-13161616-16181818----------18181818-|
D|-----x--x-x-x-x--x-x-x-x--x-x-x-x--x-x-x-x--x-x-x-x-----------x-x-x-x-|
A|-666-6--6-7-7-7--7-9-9-9--9111111-11141414-14161616-16161616-16161616-|
E|----------------------------------------------------------------------|
   ...                                                 . . . .
"So raise your voice..."
e|------------------------------------------------|
B|------------------------------------------------|
G|------------------------------------------------|
D|--------4-4--4-2-2--2--------2-2--2-4-4--4------|
A|-2-2--2-2-2--2-0-0--0-2-2--2-0-0--0-2-2--2-2-2--|
E|-0-0--0---------------0-0--0---------------0-0--|
   . .  . . .  . . .  . . .  . . .  . . .  . . .
     "I know this how..."
e|----------------------------------------------------------------------|
B|----------------------------------------------------------------------|
G|-----8--8-9-9-9--9111111-11131313-13161616-16181818----------18181818-|
D|-----x--x-x-x-x--x-x-x-x--x-x-x-x--x-x-x-x--x-x-x-x-----------x-x-x-x-|
A|-666-6--6-7-7-7--7-9-9-9--9111111-11141414-14161616-16161616-16161616-|
E|----------------------------------------------------------------------|
   ...                                                 . . . .
Pre-Chorus
----------
"I'll take it day by day..."
e|------------------------------------------------------|
B|------------------------------------------------------|
G|-9~---------8~----------6~-------/9---8---------------|
D|-----------------------------------------9-6-9/11~----|
A|------------------------------------------------------|
E|------------------------------------------------------|
                                           . .
e|------------------------------------------------|
B|------------------------------------------------|
G|-9~---------8~----------6-----------4-4-4-4-4-4-|
D|-x----------------------------------4-4-4-4-4-4-|
A|-7~---------------------------------2-2-2-2-2-2-|
E|------------------------------------------------|

Chorus
------
  "Understand..."
e|-12----11----9-----------------------|
B|----12----12---9--9-10---10-12----12-|
G|-----------------------9-------9-----|
D|-------------------------------------|
A|-------------------------------------|
E|-------------------------------------|
"We're free at last..."
e|-12----11----12--------12-----12-11-----11-|
B|----12----12----10--10----10--------12-----|
G|-------------------------------------------|
D|-------------------------------------------|
A|-------------------------------------------|
E|-------------------------------------------|
  "All it means..."
e|-12----11----9-----------------------|
B|----12----12---9--9-10---10-12----12-|
G|-----------------------9-------9-----|
D|-------------------------------------|
A|-------------------------------------|
E|-------------------------------------|
"All that lasts..."
e|-12----11----12--------12-----12-11-----11-|
B|----12----12----10--10----10--------12-----|
G|-------------------------------------------|
D|-------------------------------------------|
A|-------------------------------------------|
E|-------------------------------------------|

Solo
----
e|----------------------------------------------|
B|----------------------------------------------|
G|-/13--11-13--9-9-9-/14--14-13-13--14r13r11-9--|
D|----------------------------------------------|
A|----------------------------------------------|
E|----------------------------------------------|

e|----------------------9~---9--11-12-/14--16r14r12-12~----|
B|-----------------9-12------------------------------------|
G|-/13--11-9-----9-----------------------------------------|
D|------------11-------------------------------------------|
A|---------------------------------------------------------|
E|---------------------------------------------------------|
               . . .  .
Bridge
------
 "This is a lesson..."
e|-------------------------------------------|
B|-------------------------------------------|
G|---------4-2~-------4---------4-2~-------4-|
D|-2~------4-2~-------4-2~------4-2~-------4-|
A|-2~------2-0~-------2-2~------2-0~-------2-|
E|-0~-------------------0~-------------------|

e|------------------------------------------|
B|------------------------------------------|
G|/9~------8-6~-------8-4~-----11-9-9-9-9-9x|
D|-x-------x-x--------x-x-------x-x-x-x-x-x-|
A|/7~------6-4~-------6-2~------9-7-7-7-7-7x|
E|------------------------------------------|

Chorus
------
  "Understand..."
e|-12----11----9-----------------------|
B|----12----12---9--9-10---10-12----12-|
G|-----------------------9-------9-----|
D|-------------------------------------|
A|-------------------------------------|
E|-------------------------------------|
"We're free at last..."
e|-12----11----12--------12-----12-11-----11-|
B|----12----12----10--10----10--------12-----|
G|-------------------------------------------|
D|-------------------------------------------|
A|-------------------------------------------|
E|-------------------------------------------|
  "All it means..."
e|-12----11----9-----------------------|
B|----12----12---9--9-10---10-12----12-|
G|-----------------------9-------9-----|
D|-------------------------------------|
A|-------------------------------------|
E|-------------------------------------|
"All that lasts..."
e|-12----11----12--------12-----12-11-----11-|
B|----12----12----10--10----10--------12-----|
G|-------------------------------------------|
D|-------------------------------------------|
A|-------------------------------------------|
E|-------------------------------------------|

Outro
-----
e|-----------------------------------------------|
B|-12------14------17------14------12h14r12------|
G|---131313--131313--131313--131313--------14-13-|
D|-----------------------------------------------|
A|-----------------------------------------------|
E|-----------------------------------------------|
      . . .   . . .   . . .   . . .

e|-----------------------------------------------|
B|-12------14------17------14------12h14r12------|
G|---131313--131313--131313--131313--------14-13-|
D|-----------------------------------------------|
A|-----------------------------------------------|
E|-----------------------------------------------|
      . . .   . . .   . . .   . . .

e|-----------------------------------------------|
B|-12------14------17------14------12h14r12------|
G|---131313--131313--131313--131313--------14-13-|
D|-----------------------------------------------|
A|-----------------------------------------------|
E|-----------------------------------------------|
      . . .   . . .   . . .   . . .
e|---------------------------------|
B|---------------------------------|
G|---------------------------------|
D|-2-2x---2-2x---2-2x--------------|
A|-2-2x---2-2x---2-2x--------------|
E|-0-0x---0-0x---0-0x--------------|
   . .    . .    . .
comments
We did not receive enough feedback on this tab! Please rate:
print report bad tab
1 2 3 4 5
I want to post or [tab]
guest
You may want to rate the tab now too:
select rating
Please do not post tabs as comments. Select "correction" instead!