Oops, an error
Loading. Please wait.

Dipshit Tab

ver2
ver2

Intro

Whole song

More versions @911Tabs.com
207 views 3 this week
no commentswrite comment
1 2 3 4 5
excellent!
x 1
Autoscroll
+/-
esc
set tempo
stop
Contributor
Difficulty
novice
WARNING: You are trying to view
                                    content from Ultimate-Guitar.com
                                    in an unauthorized application,
                                    which is prohibited.

                                    Please use an official Ultimate
                                    Guitar Tabs application for iPhone,
                                    iPad or Android to access legitimate
                                    chords, guitar, bass, and drum tabs
                                    from Ultimate-Guitar.com database.

                                    Type "ultimate guitar tabs" in Apple
                                    App Store's or Android Market's
                                    search to find the application.
Dipshit - Rufio
tabber - shonofear

Intro
 Gtr 1
-|-------------------------------------------------x4-|
-|------------------2h3p2-----------------------------|
-|-77---------2--22-------2------44---------2---------|
-|-77-0h2h4-0----22---------5-4--44-0h2h4-0----4-5-55-|
-|-55------------00--------------22------------4-5-55-|
-|---------------------------------------------2/3-33-|
                                                                        
 Gtr 2
-|----------------------------------------------------|
-|----------------------------------------------------|
-|-77------------22--------------44-------------------|
-|-77------------22--------------44------------4-5-55-|
-|-55------------00--------------22------------4-5-55-|
-|---------------------------------------------2/3-33-|
                                                                              
-|-------------------------------------------------------|
-|-77----------------------------77----------------------|
-|------------------2h4p2------------------------11-1111-|
-|-44-4h5h7-4----22-*-*-*-5-4-2--44-4h5h7-4----4---------|
-|----*-*-*-*-5--00-------*-*-*-----*-*-*-*-5--4-/9--9-9-|
-|------------*--**-------------------------*--2---------|
                                                                              
-|-----------------------|-----------------------|
-|-----------------------|-----------------------|
-|-7---------4-----------|-7----9----4-----------|
-|-7-8--7----4-8--4-5-55-|-7-8--9-8--4-8--4-5-55-|
-|-5----7-8--2----4-5-55-|-5----7----2----4-5-55-|
-|------5---------2/3-33-|----------------2/3-33-|
                                                                              
Intro 2
 Gtr 1
-|---------------------|---------------|
-|---------------------|---------------|
-|---------------------|--------7777---|
-|-999-77--77----44-77-|-999-77-7777-5-|
-|-999-77--**-55-**-**-|-999-77-5555-5-|
-|-777-55-----**-------|-777-55------3-|
  
-|---------------------|----------|
-|---------------------|----------|
-|---------------------|----------|
-|-999-77--77----44-77-|-9----7---|
-|-999-77--**-55-**-**-|-9-6--7-6-|
-|-777-55-----**-------|-7----5---|
                                                                              
 Gtr 2
-|----------------|----------------|
-|----------------|----------------|
-|-777-66-7---7---|-777-66-7---7---|
-|-------------10-|-------------12-|
-|-555-44-5---5---|-555-44-5---5---|
-|----------------|----------------|
                                                                              




Verse
 Gtr 1
-|------------------|
-|------------------|
-|------------------|
-|-5----5-4----7----|
-|-5-6------5--7-12-|
-|-3-----------5----|
                                                                             
 Gtr 2
-|---------------------------------------------------|
-|----------------------------10----8----7----8----7-|
-|----------------44-66-7--77----77---77---77---77---|
-|-------44-55-77-**-**----**----**---**---**---**---|
-|-55-77-**-**-**------------------------------------|
-|-**-**---------------------------------------------|
                                                                              
 Gtr 1
-|-----------------------------------|
-|-----------------------------------|
-|-7--------7p^----------------------|
-|-7-6-------------------------------|
-|-5----4-5-----5--5-5-5-5--55-5-5-5-|
-|-----------------3-3-3-3--33-3-3-3-|
                   * * * *  ** * * *                                          
 Gtr 2
-|-----------------------------------|
-|-----------------------------------|
-|-11--------------7-7-7-7--77-7-7-7-|
-|---6-------------------------------|
-|--9---7-9--10-9--5-5-5-5--55-5-5-5-|
-|-----------------*--------**-------|
                                                                              
 Gtr 1
-|------------------|
-|------------------|
-|------------------|
-|-5----5-4----7----|
-|-5-6------5--7-12-|
-|-3-----------5----|
 
 Gtr 1                                                                             
-|-----------------------------------|
-|-----------------------------------|
-|-7---------------------------------|
-|-7-6------7p^----------------------|
-|-5----4-5-----5--5-5-5-5--55-5-5-5-|
-|-----------------3-3-3-3--33-3-3-3-|
                   * * * *  ** * * * 
Gtr 2 (Repeat)




    





    
                                 
Post Verse
 Gtr 1
-|-----------------|
-|-----------------|
-|-----------------|
-|-5----5-4----7---|
-|-5-r------5--7-r-|
-|-3-----------5---|

 Gtr 2
-|-----------------|
-|-----------------|
-|-7-----------6---|
-|---r-----------r-|
-|-5-----------4---|
-|-----------------|
                                                                              
Pre Chorus
 Gtr 1
-|-----------------------------|--------------------------|
-|-----------------------------|--------------------------|
-|-------------------7777------|--------------------------|
-|-999-77-5---999-77-7777-5555-|-999-77-5---9-------------|
-|-999-77-5---999-77-5555-5555-|-999-77-5---9-6--77777777-|
-|-777-55-3---777-55------3333-|-777-55-3---7----55555555-|
                                                 ********                     
 Gtr 2
-|--------|
-|--------|
-|-7------|
-|---many-|
-|-5------|
-|--------|
                                                                              
Chorus
 Gtr 1
-|------------------------x2-|
-|---------------------------|
-|-7777----------------------|
-|-7777---5555---9999---7777-|
-|-5555---5555---9999---7777-|
-|--------3333---7777---5555-|
                                                                            
 Gtr 2
-|---------------------------------------x2-|
-|------------------------------------------|
-|-11111111---12121212---11111111--14141414-|
-|------------------------------------------|
-|--9-9-9-9---10101010----9-9-9-9--12121212-|
-|------------------------------------------|
                                                                              
 Gtr 1
-|------------------------------------|
-|------------------------------------|
-|-7-77-------------------------------|
-|-7-77-xxxx-5-55-xxxx-9-99-xxxx-7-77-|
-|-5-55-xxxx-5-55-xxxx-9-99-xxxx-7-77-|
-|------xxxx-3-33-xxxx-7-77-xxxx-5-55-|
      



 Gtr 2
-|------------------------------------------------|
-|------------------------------------------------|
-|-11-1111------12-1212------11-1111------14-1414-|
-|---------xxxx---------xxxx---------xxxx---------|
-|--9--9-9-xxxx-10-1010-xxxx--9--9-9-xxxx-12-1212-|
-|---------xxxx---------xxxx---------xxxx---------|
                                                                      
 Gtr 1
-|-----------------------------------------|
-|-----------------------------------------|
-|-7-77------------------------------------|
-|-7-77-xxxx-5-55-xxxx-9-99-xxxx-7-7777-xx-|
-|-5-55-xxxx-5-55-xxxx-9-99-xxxx-7-7777-xx-|
-|------xxxx-3-33-xxxx-7-77-xxxx-5-5555-xx-|
                                                                              
 Gtr 2                                                                             
-|---------------------------------------------|
-|---------------------------------------------|
-|-11-1111------12-1212------11-1111------14---|
-|---------xxxx---------xxxx---------xxxx----8-|
-|--9--9-9-xxxx-10-1010-xxxx--9--9-9-xxxx-12---|
-|---------xxxx---------xxxx---------xxxx------|
   
Intro
 Gtr 1                                                                           
-|----------------------------------------------------|
-|------------------2h3p2-----------------------------|
-|-77---------2--22-------2------44---------2---------|
-|-77-0h2h4-0----22---------5-4--44-0h2h4-0----4-5-55-|
-|-55------------00--------------22------------4-5-55-|
-|---------------------------------------------2/3-33-|

 Gtr 2
-|-------------------------------------------------------|
-|-77----------------------------77----------------------|
-|------------------2h4p2------------------------11-1111-|
-|-44-4h5h7-4----22-*-*-*-5-4-2--44-4h5h7-4----4---------|
-|----*-*-*-*-5--00-------*-*-*-----*-*-*-*-5--4-/9--9-9-|
-|------------*--**-------------------------*--2---------|

 Gtr 1                                                                           
-|----------------------------------------------------|
-|------------------2h3p2-----------------------------|
-|-77------------22-------2------44---------2---------|
-|-77-0h2h4-0----22---------5-4--44-0h2h4-0----4-5-55-|
-|-55---------0--00--------------22------------4-5-55-|
-|---------------------------------------------2/3-33-|

 Gtr 2
-|-----------------------|
-|-----------------------|
-|-7---------4-----------|
-|-7-8--7----4-8--4-5-55-|
-|-5----7-8--2----4-5-55-|
-|------5---------2/3-33-|
   




                                                                           
Intro 2
 Gtr 1
-|-----------------|
-|-----------------|
-|--------7777-----|
-|-999-77-7777-----|
-|-999-77-5555-5-5-|
-|-777-55------3-3-|
               * *                                                           
 Gtr 2
-|-----------------|
-|-----------------|
-|-777-66-7777-----|
-|-----------------|
-|-555-44-5555-5-5-|
-|-------------3-3-|
               * *                                                            
Verse 
Pre Chorus                                                            

Chorus 2
 Gtr 1
-|------------------------x2-|
-|---------------------------|
-|-7777----------------------|
-|-7777---5555---9999---7777-|
-|-5555---5555---9999---7777-|
-|--------3333---7777---5555-|
                                                                           
 Gtr 2
-|----------------x3-|-------------|
-|-------------------|-------------|
-|------12-14-141414-|------11-9---|
-|-xxxx--------------|-xxxx------r-|
-|-xxxx-10/12-121212-|-xxxx--9\7---|
-|-xxxx--------------|-xxxx--------|
                                                                              
 Gtr 1
-|-----------------------------------------|
-|-----------------------------------------|
-|-7-77------------------------------------|
-|-7-77-xxxx-5-55-xxxx-9-99-xxxx-7-77-xxxx-|
-|-5-55-xxxx-5-55-xxxx-9-99-xxxx-7-77-xxxx-|
-|------xxxx-3-33-xxxx-7-77-xxxx-5-55-xxxx-|
   
 Gtr 2                                                                           
-|-------------------|----------------x2-|-------------|
-|-------------------|-------------------|-------------|
-|------12-14-141414-|------12-14-141414-|------11-9---|
-|-x-xx--------------|-xxxx--------------|-xxxx------r-|
-|-x-xx-10/12-121212-|-xxxx-10/12-121212-|-xxxx--9\7---|
-|-x-xx--------------|-xxxx--------------|-xxxx--------|

 Gtr 1
-|-----------------------------------|
-|-----------------------------------|
-|-7-77------------------------------|
-|-7-77-xxxx-5-55-xxxx-9-99-xxxx-7---|
-|-5-55-xxxx-5-55-xxxx-9-99-xxxx-7-6-|
-|------xxxx-3-33-xxxx-7-77-xxxx-5---|
  
                                                                            
 Gtr 2                                                                              
-|----------------x3-|-------------|
-|-------------------|-------------|
-|------12-14-141414-|------11-9---|
-|-xxxx--------------|-xxxx------r-|
-|-xxxx-10/12-121212-|-xxxx--9\7---|
-|-xxxx--------------|-xxxx--------|
                                                                              
Bridge
 Gtr 1
-|--------------------------------------|
-|--------------------------------------|
-|--------------------------------------|
-|-----7------7------7------7-5-4-------|
-|---5------5------5----4-5-------7-5-4-|
-|-7------3------7----------------------|
   *      *      * 
                                                           
 Gtr 2
-|--------------------------------------|
-|--------------------------------------|
-|--------------------------7-----------|
-|-9------5------9----------7-r---7-----|
-|-9-r----5-r----9-r--------5-----7-r---|
-|-7------3------7----------------5-----|
                                                                              
Bridge 2
 Gtr 1
-|------------------------------------------------------------------|
-|------------------------------------------------------------------|
-|------------------------------------------------------------------|
-|--------------------------------------------------5---5---5---5---|
-|-9---9---9---9---9---9---9---9----5---5---4---5-------------------|
-|---7---7---7---7---7---7---7---7----3---3---3---3---3---3---3---3-|
     *   *   *   *   *   *   *   *    *   *   *   *   *   *   *   *      
     
 Gtr 2
-|----------------------------------------------------------------------------------|
-|----------------------------------------------------------------------------------|
-|-11---11---11---11---11---11---11---11----12---12---12---12---12---12---12---12---|
-|----9----9----9----9----9----9----9----9-----9----9----9----9----9----9----9----9-|
-|----*----*----*----*----*----*----*----*-----*----*----*----*----*----*----*----*-|
-|----------------------------------------------------------------------------------|
                                                                              
 Gtr 1
-|-----------------------------------------------|
-|-----------------------------------------------|
-|-----------------------------------------------|
-|-------------------------------------------7---|
-|-9---9---9---9---9---9---9---9----77777777-7-8-|
-|---7---7---7---7---7---7---7---7--55555555-5---|
     *   *   *   *   *   *   *   *  ********    
                              
 Gtr 2
-|-------------------------------------------------------|
-|-------------------------------------------------------|
-|-11---11---11---11---11---11---11---11-----------------|
-|----9----9----9----9----9----9----9----9-----------7---|
-|----*----*----*----*----*----*----*----*--77777777-7-8-|
-|------------------------------------------55555555-5---|
                                            ********    
                      
Break
 Gtr 1
-|------10----|
-|---10----10-|
-|-7----------|
-|------------|
-|------------|
-|---------x4-|
                                                                         
 Gtr 2
-|-----------------------------------|
-|-7---7---7---8----7---7---7--------|
-|---7---7---7---7----7---7---7--9-7-|
-|-----------------------------------|
-|-----------------------------------|
-|-----------------------------------|

 Gtr 1
-|------10---------10-------------|
-|---10----10---10----------------|
-|-7----------7-------------------|
-|---------------------9999--7777-|
-|---------------------9999--7777-|
-|---------------------7777--5555-|
                                                                              
 Gtr 2                                                                           
-|---------------------------|
-|-7---7---7---8-------------|
-|---7---7---7---------------|
-|----------------9999--7777-|
-|----------------9999--7777-|
-|----------------7777--5555-|
                                                                              
Chorus 3
 Gtr 1
-|-----------------------------------------|
-|-----------------------------------------|
-|-7-77------------------------------------|
-|-7-77-xxxx-5-55-xxxx-9-99-xxxx-7-77-xxxx-|
-|-5-55-xxxx-5-55-xxxx-9-99-xxxx-7-77-xxxx-|
-|------xxxx-3-33-xxxx-7-77-xxxx-5-55-xxxx-|
   
 Gtr 2                                                                           
-|-------------------|----------------x2-|-------------|
-|-------------------|-------------------|-------------|
-|------12-14-141414-|------12-14-141414-|------11-9---|
-|-x-xx--------------|-xxxx--------------|-xxxx------r-|
-|-x-xx-10/12-121212-|-xxxx-10/12-121212-|-xxxx--9\7---|
-|-x-xx--------------|-xxxx--------------|-xxxx--------|

 Gtr 1
-|-----------------------------------|
-|-----------------------------------|
-|-7-77------------------------------|
-|-7-77-xxxx-5-55-xxxx-9-99-xxxx-7---|
-|-5-55-xxxx-5-55-xxxx-9-99-xxxx-7-6-|
-|------xxxx-3-33-xxxx-7-77-xxxx-5---|
   



                                                              
 Gtr 2                                                                              
-|----------------x3-|-------------|
-|-------------------|-------------|
-|------12-14-141414-|------11-9---|
-|-xxxx--------------|-xxxx------r-|
-|-xxxx-10/12-121212-|-xxxx--9\7---|
-|-xxxx--------------|-xxxx--------|
 
Outro
 Gtr 1
-|-----------------x2-|-----|
-|--------------------|-----|
-|-7------------------|-7---|
-|-7-8--5----9----7---|-7-r-|
-|-5----5-8--9-8--7-8-|-5---|
-|------3----7----5---|-----|

 Gtr 2
-|------------------------|--------------------|
-|------------------------|--------------------|
-|-11---12121212-14141414-|-11---12121212-9999-|
-|---8--------------------|---8----------------|
-|--9---10101010-12121212-|--9---10101010-7777-|
-|------------------------|--------------------|
                                                                              
-|--------------------|-----|
-|--------------------|-----|
-|-11---12---11---14--|-14--|
-|---8----8----8----8-|---r-|
-|--9---10----9---12--|-12--|
-|--------------------|-----|
                                                                              

comments
We did not receive enough feedback on this tab! Please rate:
print report bad tab
1 2 3 4 5
I want to post or [tab]
guest
You may want to rate the tab now too:
select rating
Please do not post tabs as comments. Select "correction" instead!