Oops, an error
Loading. Please wait.

Gold And Silver Bass Tab

153 views 1 this week
no commentswrite comment
1 2 3 4 5
please rate
Autoscroll
+/-
esc
set tempo
stop
Contributor
Tuning
D# G# C# F# A# D#
WARNING: You are trying to view
                                    content from Ultimate-Guitar.com
                                    in an unauthorized application,
                                    which is prohibited.

                                    Please use an official Ultimate
                                    Guitar Tabs application for iPhone,
                                    iPad or Android to access legitimate
                                    chords, guitar, bass, and drum tabs
                                    from Ultimate-Guitar.com database.

                                    Type "ultimate guitar tabs" in Apple
                                    App Store's or Android Market's
                                    search to find the application.
++++++++++++++++++++++++++
| Rufio- Gold and Silver |
++++++++++++++++++++++++++


"So lend me all your ears..."


Tuning: Half-Step Down



Verse
"Gold and silver dont mean a thing..."
1.
G||---------------------------------------------------------------------|
D||---------------------------------------------------------------------|
A||-6-66-664-44-4h6p4-2-22-22-----124-6-66-664-44-4h6p4-2-22-22-----124-|--x2
Eb|--------------------------3-33------------------------------3-33-----|

Pre-Chorus
"You're half the man..."
2.
G||-------------------------------------------------------------|
D||-------------------------------------------------------------|
A||-2-22~-----------------4-44~----2-22~-------4-44-44-44444444-|
Eb|--------------3-33~------------------------------------------|

Chorus
"Corroded minds and black and white eyes..."
3.
G||--------------------------------------------------|
D||--------------------------------------------------|
A||-------22-2-266-6-644-4-4------22-2-2------44-4-4-|--x2
Eb|-33-3-3------------------33-3-3------00-0-0-------|

Outro
4.
G||--------------------|
D||--------------------|
A||-22222222-22222x----|
Eb|--------------------|

Verse
"My misfortune's your guarantee..."
5.
G||-------------------------------------------------------------------------|
D||-------------------------------------------------------------------------|
A||-66666644-44444644-2222244------1244-66666644-44444644-2222244------1244-|
Eb|--------------------------3-3333------------------------------3-3333-----|

"And living hostel is all you need..."
6.
G||---------------------------------------------------------------------|
D||---------------------------------------------------------------------|
A||-6-66-664-44-4h6p4-2-22-22-----124-6-66-664-44-4h6p4-2-22-22-----124-|
Eb|--------------------------3-33------------------------------3-33-----|

Pre-Chorus
"You're half the man..."
7.
G||-------------------------------------------------------------|
D||-------------------------------------------------------------|
A||-2-22-22~--------------4-44-44~-2-22-22~----4-44-44-44444444-|
Eb|--------------3-33-33~---------------------------------------|

Chorus
"Corroded minds and black and white eyes..."
8.
G||--------------------------------------------------|
D||--------------------------------------------------|
A||-------22-2-266-6-644-4-4------22-2-2------44-4-4-|--x2
Eb|-33-3-3------------------33-3-3------00-0-0-------|

Bridge
"Im so tired and getting bored..."
9.
G||-------------------------------------------------------------------------|
D||-------------------------------------------------------------------------|
A||-22222222-22222222----------44444444-22222222-22222222----------44444444-|
Eb|-------------------33333333----------------------------33333333----------|

"So lend me all your ears..."
10.
G||-------------------------------------------------------------------------|
D||-------------------------------------------------------------------------|
A||-22222222-22222222----------44444444-66666666-66666666-44444444-44444444-|
Eb|-------------------33333333----------------------------------------------|

Chorus
"Corroded minds and black and white eyes..."
11.
G||--------------------------------------------------|
D||--------------------------------------------------|
A||-------22-2-266-6-644-4-4------22-2-2------44-4-4-|--x4
Eb|-33-3-3------------------33-3-3------00-0-0-------|

Outro
"Gold and silver dont mean a thing..."
12.
G||------------------|
D||------------------|
A||-2-2-2~-----------|
Eb|------------------|


Please rate thanks!!


Lyrics:

Gold and Silver don't mean a thing
You spend your fortunes on diamond rings
It holds you back from your true ending
You feel so useful condemning me

You're half the man
(You're half the man that I am)

Corroded minds and black and white eyes
The honest side will break all of your ties
These fleeting games and the emptiest lies
You want it all; you want it all

My misfortune's your guarantee
And when I'm falling you'll gain the lead
And living hostel is all you need
You gave your heart up for awful things

I'm so tired and getting bored
With all the overdramatic tones
So lend me all your ears
Cause right now I'm gonna say



+++++++++++++++++++++++++++++++++
| Raileff                       |
| Underground__Dora@Hotmail.Com |
+++++++++++++++++++++++++++++++++
comments
We did not receive enough feedback on this tab! Please rate:
print report bad tab
1 2 3 4 5
I want to post or [tab]
guest
You may want to rate the tab now too:
select rating
Please do not post tabs as comments. Select "correction" instead!