Oops, an error
Loading. Please wait.

Perhaps I Suppose Bass Tab

ver1
ver1

Album

More versions @911Tabs.com
1,057 views 3 this week
5 commentsread comments
1 2 3 4 5
excellent!
x 2
Autoscroll
+/-
esc
set tempo
stop
Contributor
Hey! There's an official Ultimate Guitar app which is ideal
for learning songs when you're away from computer. Get the app
WARNING: You are trying to view
                                    content from Ultimate-Guitar.com
                                    in an unauthorized application,
                                    which is prohibited.

                                    Please use an official Ultimate
                                    Guitar Tabs application for iPhone,
                                    iPad or Android to access legitimate
                                    chords, guitar, bass, and drum tabs
                                    from Ultimate-Guitar.com database.

                                    Type "ultimate guitar tabs" in Apple
                                    App Store's or Android Market's
                                    search to find the application.
++++++++++++++++++++++++++++++++
| Rufio- Perhaps, I Suppose... |
++++++++++++++++++++++++++++++++

Bass Tab

+++++++++++++++++++++++++++++

Ok guys here is my version
of the songs of this great album!
Note: I havent copied ANY of the tabs
All of them are my own hearing transcribed :)
I hope you enjoy, RaiLeff

Tracks:

1. Above Me
2. Still
3. One Slowdance
4. In My Eyes
5. She Cries
6. Dipshit
7. Just A Memory
8. Face The Truth
9. Raining In September
10. Road To Recovery
11. Stop Whining
12. Selfishness
13. Tears
14. Save The World
15. The Wrath

++++++++++++++++++++++++++++++

1. Above Me

Tuning: EADG

Intro.
1.
G|-------------------------------------|
D|-------------------------------------|
A|-------------------55555555-33333333-|--x3
E|-55555555-66666666-------------------|

2.
G|-------------------------------------|
D|-------------------77777777-55555555-|
A|-------------------------------------|
E|-55555555-66666666-------------------|

3.
G|---------------------------------------|
D|----------------7/10-8-7--8-7-5--7-5-3-|
A|---------------------------------------|
E|-666666-666666x------------------------|

Verse
"If I was to walk.."
4.
G|---------------------------------------------|
D|-----------------------3333333333------------|
A|-5555555555-----------------------3333333333-|--x2
E|------------6666666666-----------------------|

"You showed me life and lived nothing else.."
5.
G|--------------------------------------------------|
D|-3-2-3/5-3-2-------------8-7-8/10-8-7-------------|
A|--------------------------------------88888-------|
E|-------------66666-55555--------------------88888-|

Pre-Chorus
"I'll take my time your memory is bliss.."
6.
G|---------------------------------------------------------|
D|-------------------------------------------333333--------|
A|---------------555555-333333----------------------333333-|
E|-555555-666666---------------555555-666666---------------|

Chorus
"When I look at the stars..'
7.
G|-------------------------------------------------------------------------|
D|-------------------------------------------------------------------------|
A|-11111111-11111111-33333333-33333333-55555555-55555555-00000000-00000000-|
E|-------------------------------------------------------------------------|

"Cause you're so above me.."
8.
G|-------------------------------------------------------------------------|
D|-------------------------------------------------------------------------|
A|-11111111-11111111-33333333-33333333-55555555-55555555-00000000-00000000-|
E|-------------------------------------------------------------------------|

"With.. With"
9.
G|-------------------------------|
D|-------------------------------|
A|-11111111-11111111-33333333-3~-|
E|-------------------------------|

Outro
"Angel above me..."
10.
G|-------------------------------------|
D|-------------------------------------|
A|-------------------55555555-33333333-|--x2
E|-55555555-66666666-------------------|

"To look at the mountains vast and great.."
11.
G|--------------------------------------|
D|----------------------------3333-2222-|
A|-11111111-55555555-00000000-----------|
E|--------------------------------------|

"Is one step above.."
12.
G|-------------------------------------|
D|-------------------------------------|
A|-11111111-11111111-33333333-55555555-|
E|-------------------------------------|

"To look at the stars for they lead the way.."
13.
G|--------------------------------------|
D|----------------------------3333-2222-|
A|-11111111-55555555-00000000-----------|
E|--------------------------------------|

"To the angel above.."
14.
G|-------------------------------|
D|-------------------------------|
A|-11111111-11111111-33333333-3x-|
E|-------------------------------|

Verse
"If I was to walk.."
15.
G|---------------------------------------------|
D|-----------------------3333333333------------|
A|-5555555555-----------------------3333333333-|--x2
E|------------6666666666-----------------------|

"You showed me life and lived nothing else.."
16.
G|--------------------------------------------------|
D|-3-2-3/5-3-2-------------8-7-8/10-8-7-------------|
A|--------------------------------------88888-------|
E|-------------66666-55555--------------------88888-|

Pre-Chorus
"I'll take my time your memory is bliss.."
17.
G|---------------------------------------------------------|
D|-------------------------------------------333333--------|
A|---------------555555-333333----------------------333333-|
E|-555555-666666---------------555555-666666---------------|

Chorus
"When I look at the stars..'
18.
G|-------------------------------------------------------------------------|
D|-------------------------------------------------------------------------|
A|-11111111-11111111-33333333-33333333-55555555-55555555-00000000-00000000-|
E|-------------------------------------------------------------------------|

"Cause you're so above me.."
19.
G|-------------------------------------------------------------------------|
D|-------------------------------------------------------------------------|
A|-11111111-11111111-33333333-33333333-55555555-55555555-00000000-00000000-|
E|-------------------------------------------------------------------------|

"With.. With"
20.
G|-------------------------------|
D|-------------------------------|
A|-11111111-11111111-33333333-3~-|
E|-------------------------------|

Outro
"Angel above me..."
21.
G|-------------------------------------|
D|-------------------------------------|
A|-------------------55555555-33333333-|--x2
E|-55555555-66666666-------------------|

22.
G|------------------------------------------------------|
D|------------------------------------------------------|
A|---------------55555-33333----------------55555-33333-|
E|-55x----66x-----------------55x----66x----------------|

21.
G|-----------------------------7~--5-3-5-2-|
D|---------------------33-55-0----5-3------|
A|-------------------55--------------------|
E|-55555555-66666666-----------------------|

22.
G|-------------------77-55-33-22-55-33-22-00--------|
D|-------------------------------------------3~-33x-|
A|--------------------------------------------------|
E|-55555555-66666666--------------------------------|

Lyrics:

If I was to walk till time saw no end.
If I was to climb till the air was too thin.
I could not find a picture fit the frame.
As perfect as you.
As perfect as you.

You showed me life and lived nothing less.
'Cause you're so above me.
I'll take my time your memory is bliss.
The angel above me.

When I look at the stars they shine of your eyes.
The sky it burns bright with your presence tonight.
'Cause you're so above me and I cannot fly.
To the angel above me I long to be with. With.

Angel above me.

To look at the mountains vast and great.
Is one step above in seeing your face.
To look at the stars for they lead the way.
To the angel above.

+++++++++++++++++++++++++++++++++++++++++++++++++++++++

2. Still

Tuning: EADG

For this song I dont understand
how the guy can play the intro on one bass..
Truly, I cant do it
Well anyways, these are the notes he plays

Intro.
1.
G|-----6-9-----6------6-9-----6------6-9-----6------6-9-7-6h7-6h7-|
D|-7-9-----7-9----7-9-----7-9----7-9-----7-9----7-9---------------|
A|----------------------------------------------------------------|
E|----------------------------------------------------------------|

 And at the same time you should be playing

G|------------------------------------------------------------------------|
D|-------------------22222222-22222222-0000000-00000000-00000000-00000000-|
A|-00000000-00000000------------------------------------------------------|
E|------------------------------------------------------------------------|

Play the intro twice

2.
G|------------------------------------------------------------|
D|-------------------------------------------777-77-777-6h7p6-|
A|-----------------------------555-55-555-55------------------|
E|-222-22-222-22-000-00-000-00--------------------------------|

3.
G|-----------------------------------------------------------------------------|
D|-----------------------------------------------------------------------------|
A|-------------------------------------55555555-55555555-5555555-5555/12121212-|
E|-22222222-22222222-00000000-00000000-----------------------------------------|

Verse
"Trapped inside of your eyes.."
4.
G|--------------------------------------|
D|--------------------------------------|
A|---------------------55-555-555-555-5-|--x4
E|-2222-2222-0000-0000------------------|

Pre-Chorus
"Although I can see.."
5.
G|----------------------------------------------99----------99----|
D|---------22222-44444-22222-----------------77----99----99----77-|
A|-7-55555-------------------55555-77777--99----------77----------|
E|----------------------------------------------------------------|

"I dont understand, I embrace every thought.."
6.
G|-------------------------------------------------------------------------|
D|-00000000-22222222-44444444-22222222-00000000-00000000-22222222-22220000-|
A|-------------------------------------------------------------------------|
E|-------------------------------------------------------------------------|

Chorus
"You're watching.."
7.
G|------------------------------------------------------------------------|
D|---------------------------------------------------------77--77--99--99-|
A|-00000000-00000000-55555555-55555555-00000000-00000000-55--55--77--77---|
E|------------------------------------------------------------------------|

"Open wounds, still bleeding.."
8.
G|--------------------------------------------------------|
D|--------------------------------------------------------|
A|-----------------55-555-555-555-5----------------5~--7~-|
E|-22-222-222-222-2----------------22-222-222-222-2-------|

Outro.
9.
G|-----------------------------------------------------------------------------|
D|-----------------------------------------------------------------------------|
A|-------------------------------------55555555-55555555-5555555-5555/12121212-|
E|-22222222-22222222-00000000-00000000-----------------------------------------|

Verse
"Left behind hatefull thoughts.."
10.
G|--------------------------------------|
D|--------------------------------------|
A|---------------------55-555-555-555-5-|--x4
E|-2222-2222-0000-0000------------------|

Pre-Chorus
"Although I can see.."
11.
G|----------------------------------------------99----------99----|
D|---------22222-44444-22222-----------------77----99----99----77-|
A|-7-55555-------------------55555-77777--99----------77----------|
E|----------------------------------------------------------------|

"I dont understand, I embrace every thought.."
12.
G|-------------------------------------------------------------------------|
D|-00000000-22222222-44444444-22222222-00000000-00000000-22222222-22220000-|
A|-------------------------------------------------------------------------|
E|-------------------------------------------------------------------------|

Chorus
"You're watching.."
13.
G|------------------------------------------------------------------------|
D|---------------------------------------------------------77--77--99--99-|
A|-00000000-00000000-55555555-55555555-00000000-00000000-55--55--77--77---|
E|------------------------------------------------------------------------|

"Open wounds, still bleeding.."
14.
G|--------------------------------------------------------|
D|--------------------------------------------------------|
A|-----------------55-555-555-555-5----------------5~--7~-|
E|-22-222-222-222-2----------------22-222-222-222-2-------|

"Tears of unseen light.."
15.
G|-----9~--------------------------------------------9~-----------------|
D|-4/7----7---------------4/7--------------------4/7----7---------------|
A|----------55-555-77-777-----7~-4-55-555-77-777----------55-555-77-777-|
E|----------------------------------------------------------------------|

"Heart stopping.."
16.
G|---------------------------------------|
D|-4/7-----------------------------------|
A|-----7~-4-55-555-55-555------------555-|
E|------------------------00-000-000-----|

Chorus
"You're watching.."
17.
G|------------------------------------------------------------------------|
D|---------------------------------------------------------77--77--99--99-|
A|-00000000-00000000-55555555-55555555-00000000-00000000-55--55--77--77---|
E|------------------------------------------------------------------------|

"Open wounds, still bleeding.."
18.
G|------------------------------------------------------------------|
D|------------------------------------------------------------------|
A|-----------------55-555-555-555-5----------------55-555-577-777-7-|
E|-22-222-222-222-2----------------22-222-222-222-2-----------------|

"The truth brings new meanings.."
19.
G|-------------------------------------------------------------|
D|-------------------------------------------------------------|
A|-----------------55-555-555-555-5----------------5~--7~--0~--|
E|-22-222-222-222-2----------------22-222-222-222-2------------|

Lyrics:

Trapped inside of your eyes,
Gleam like stars above, emptiness inside.
Caught inside of your arms, warmer than the sun,
Emptiness so full.

Although I can see, time is not running out,
I still run behind everything.
I don't understand, I embrace every thought,
Everyword...everything.

You're watching, my heart being, so close to you,
Your bleeding thoughts.
Open wounds still breathing
You're my everything, you're my everything...

Left behind hateful thoughts, overwhelmed by your mind,
Lost in time again.
Shadows bringing me down, jealous of your face,
Drowning in your awe.

Tears of unseen light, heart stopping.
Tears of unseen hope, heart stopping.

You're watching, my heart being, so close to you,
Your bleeding thoughts.
Open wounds still breathing
You're my everything, you're my everything...
The truth brings new meaning, your my everything,
And time stands still.

++++++++++++++++++++++++++++++++++++++++++++++++++++++++

3. One Slowdance

Tuning: EADG

Intro
1.
G|---------------------------------------|
D|---------------------------------------|
A|-2~---------------------------2~-121---|--x2
E|-----0~--0-2-4~--0~-2~-4~--0~-------2~-|

Verse
"You're standing there alone..."
2.
G|------------------------------------------------------------------------|
D|------------------------------------------------------------------------|
A|-2-222-22----------------------------2-222-22---------------------------|--x2
E|----------0-000-00-4-444-44-2-222-22----------0-000-00-4-444-44-222-222-|

Pre-Chorus
"I look you in the eyes.."
3.
G|--------------------------------------------------------|
D|-----------------------------------------------------4~-|
A|----------------------222--------------------------2----|--x2
E|-000000-222222-444444-----222-000000-222222-444444------|

Chorus
"You and me dancing the night away.."
4.
G|-----------------------------------------------------------|
D|-----------------------------------------------------------|
A|-222222------------------------------------222-121----2-1--|
E|--------000000-444444-000222-444444-000000--------222----2-|

"On a moonlit walk on the beach.."
5.
G|-------------------6-8-6--6----------------------------------|
D|---------------6-9------9--9-8-9-8---------------------------|
A|-222222/777777---------------------9---------------222222----|
E|-------------------------------------444444-000000--------2~-|

Outro
6.
G|--------------------------------------------|
D|--------------------------------------------|
A|-2~---------------------------2~-121--------|
E|-----0~--0-2-4~--0~-2~-4~--0~-------222-222-|

Verse
"You're standing there alone..."
7.
G|-------------------------------------|
D|-------------------------------------|
A|-2-2222222---------------------------|--x4
E|-----------000-000-4-4444444-222-222-|

Pre-Chorus
"I look you in the eyes.."
8.
G|--------------------------------------------------------|
D|-----------------------------------------------------4~-|
A|----------------------222--------------------------2----|--x2
E|-000000-222222-444444-----222-000000-222222-444444------|

Chorus
"You and me dancing the night away.."
9.
G|-----------------------------------------------------------|
D|-----------------------------------------------------------|
A|-222222------------------------------------222-121----2-1--|
E|--------000000-444444-000222-444444-000000--------222----2-|

"On a moonlit walk on the beach.."
10.
G|-------------------6-8-6--6----------------------------------|
D|---------------6-9------9--9-8-9-8---------------------------|
A|-222222/777777---------------------9---------------222222----|
E|-------------------------------------444444-000000--------2~-|

"We dont have to talk.."
11.
G|---------------------------------------------------------|
D|-----------------------------------------------24--------|
A|-444444/777777-222222--------444444/777777-2222----------|
E|----------------------222222----------------------222222-|

"We dont have to talk.."
12.
G|----------------------------------------------------|
D|----------------------------------------------------|
A|-444444/777777-222222--------444444/777777----------|
E|----------------------222222---------------2222222x-|

Chorus
"You and me dancing the night away.."
13.
G|-----------------------------------------------------------|
D|-----------------------------------------------------------|
A|-222222------------------------------------222-121----2-1--|
E|--------000000-444444-000222-444444-000000--------222----2-|

"On a moonlit walk on the beach.."
14.
G|-------------------6-8-6--6----------------------------------|
D|---------------6-9------9--9-8-9-8---------------------------|
A|-222222/777777---------------------9---------------222222----|
E|-------------------------------------444444-000000--------2~-|

Outro
15.                              16.
G|------------------------|     |------------------------------|
D|------------------------|     |------------------------------|
A|-2x--2------------------|--x4 |-222222-----------------------|--x2
E|------0x--024x--4-0~-2~-|     |--------000000-444444-000-222-|

17.
G|-----------------------------------------------------------|
D|-----------------------------------------------------------|
A|-222222------------------------------------222-121----2-1--|
E|--------000000-444444-000222-444444-000000--------222----2-|

18.
G|--------------------------------------------------------------|
D|---------------666666-444444----------------------------------|
A|-222222/777777-----------------------------222-121----2-1--2~-|
E|-----------------------------444444-000000--------2~-----2----|

Lyrics:

You're standing there alone
And so am I
But I want you here
By my side
Your smile at me
Is everything
The staring game
That song of love.

I look you in the eyes
I try to read you thoughts
I ask you to go with me
To a far off place.
Oh.

You and me dancing the night away
You can feel my heart beating so hard.
We look eye to eye
And I'm swept away.
On a moonlit walk on the beach
Watching the sunrise for the first time
I'm in a trance
From that one slowdance.

We don't have to talk,
We don't have to laugh at all
I just want you here with me
I just want to be
You and me

++++++++++++++++++++++++++++++++++++++++++++++++++++++++

4. In My Eyes

Tuning: EADG

Intro
"You're graceful... Your grace falls.."
1.
G|--------------------------------------------------------------|
D|--------------------3---3--1~---------------------------------|
A|-6~----------0~----1-1-0-1--------------0~--------------------|
E|-------3~------------------------3~-----------666-666-555-555-|

2.
G|------------------------------------------------------------------------------------|
D|-----------------------------------------5555555------10-8-6------------------------|
A|-------------------------------666666666---------88888------888-----------666666666-|
E|-333333333-111111111/666666666----------------------------------666666666-----------|

Verse
"Another day left waiting.."
3.
G|--------------------------------------------------------------------------|
D|-----------------------------------------------------------------10---10--|
A|-----------------666-666-666-666-----------------101010-101010-88--888--8-|
E|-333-333-333-333-----------------666-666-666-666--------------------------|

"So I called you up.."
4.
G|-----------------------------------------------------------------|
D|-----------------------------------------------------------------|
A|-----------------666-666-666-666-----------------888-888-666-666-|
E|-333-333-333-333-----------------666-666-666-666-----------------|

Pre-Chorus
"I thought that this would never end.."
5.                               6.
G|------------------------|     |---------------------|
D|------------------------|     |---------------------| 
A|------------------------|--x3 |-6666-6666-8888-8888-|
E|-333-3/5555-5/666-6-6-6-|     |---------------------|

Chorus
"You're graceful... Your grace falls.."
6.
G|----------------------------------------------------------------------------------------|
D|------------------------------------------------------------------------------3---3--1~-|
A|-666666666-------------------------------------666666666---------------------1-1-0-1----|
E|-----------333333333-555555555-666-666-555-555-----------333333333-555555555------------|

Outro
7.
G|-----------------------------------------|
D|-----------------------------------------|
A|-------------------------------666666666-|
E|-333333333-111111111/666666666-----------|

Verse
"Another day left crying.."
8.
G|---------------------------------------------------------------------|
D|-------------------8---8---8---8---8---8---8---8---10---10---10---10-|
A|-----------------66--66--66--66------------------88---88---88---88---|
E|-333-333-333-333-----------------66--66--66--66----------------------|

"Say that its not right.."
9.
G|-----------------------------------------------------------------|
D|-----------------------------------------------------------------|
A|-----------------666-666-666-666-----------------888-888-888-888-|
E|-333-333-333-333-----------------666-666-666-666-----------------|

Pre-Chorus
"I thought that this would never end.."
10.                              11.
G|------------------------|     |--------------------------|
D|------------------------|     |--------------------------| 
A|------------------------|--x3 |-6666-6666-8888-----------|
E|-333-3/5555-5/666-6-6-6-|     |----------------1111-1111-|

Chorus
"You're graceful... Your grace falls.."
12.
G|-------------------------------------------------------------------------------------|
D|------------------------------------------------------------------------------3---3--|
A|-666666666-------------------------------------666666666---------------------1-1-0-1-|
E|-----------333333333-555555555-666-666-555-555-----------333333333-555555555---------|

13.
G|------------------------------------------------------|
D|-1~------------------3---3--1~------------------3-----|
A|--------------------1-1-0-1--------------------1-1-0x-|
E|-------33x----5~------------------33x----5~-----------|

Outro
14.
G|-----------------------------------------------------------------------|
D|-----------------------------------------------------------------------|
A|----------66666666----------88886666----------66666666----------8~-656-|
E|-33333333----------66666666----------33333333----------66666666--------|

15.
G|--------------------------------------------|
D|---------------------------------10-8-6-----|
A|----------66666666----------8888--------888-|
E|-33-33~------------66-66~-------------------|

16.
G|----------------------------------------------|
D|----------------------------------------------|
A|----------66666666----------88886666----------|
E|-33-33~------------66-66~------------3~----3x-|

Lyrics:

You're graceful, your grace falls,
down around me in my eyes.
You're lovely, your love leaves,
So easily in my eyes.

Another day left waiting,
alone in my room with no calls from you.
So I call you up, but you let me down,
falling down around everyone except yourself.

I thought that this would never end,
things were so clear but they fell through.
High hopes of problems never failed,
thinking of the best.

Another day left crying,
with you in my room with nothing left to do.
Say that it's not right, said its over now.
Stand still annoyed with no one around.

++++++++++++++++++++++++++++++++++++++++++++++++++++++++++++++++

5. She Cries

Tuning: EADG

Intro
1.
G|-----9--9---9-----------9--9-99999999-|
D|-77777777-0000000------------00000000-|
A|------------------7-9999-99-----------|--x2
E|--------------------------------------|

2.
G|-99999999-9999999------------99999999-|
D|-77777777-0000000------------00000000-|
A|------------------7-99999999----------|--x2
E|--------------------------------------|

Verse
"Gone again she said.."
3.
G|---9--9-9---9--9------9--9-9---9--9-9-|
D|-77-77-7--00-00-0------------00-00-0--|
A|------------------7-99-99-9-----------|--x2
E|--------------------------------------|

Chorus
"So you sail away.."
4.
G|-------------------------------------------------------------------|
D|---------------------7--7----7--7---------------------7--7----7--7-|
A|-----------------5555-55-5555-55------------------5555-55-5555-55--|
E|-0000000-2222222------------------0000000-2222222------------------|

"Cry away..."
5.
G|-------------------------------------------------------------------|
D|---------------------7--7----7--7----------------------------------|
A|-7777777-9999999-5555-55-5555-55--7777777-9999999-5555555-5555555--|
E|-------------------------------------------------------------------|

Outro
6.
G|--------------------------------------|
D|--------------------------------------|
A|----------5555555-7-99999999-77777777-|--x2
E|-55555555-----------------------------|

Verse
"Weakened from the pain.."
7.
G|-------------------------------------|
D|-77777777-0000000-----------00000000-|
A|-----------------7-99999999----------|--x2
E|-------------------------------------|

Chorus
"So you sail away.."
8.
G|-------------------------------------------------------------------|
D|---------------------7--7----7--7---------------------7--7----7--7-|
A|-----------------5555-55-5555-55------------------5555-55-5555-55--|
E|-0000000-2222222------------------0000000-2222222------------------|

"Cry away..."
9.
G|-------------------------------------------------------------------|
D|---------------------7--7----7--7----------------------------------|
A|-7777777-9999999-5555-55-5555-55--7777777-9999999-5555555-5555555--|
E|-------------------------------------------------------------------|

Outro
"Alone, she cries.."
10.
G|-------------------------------------------------------|
D|-------------------------------------------------------|
A|-00000000-00000000-5555-55-55-555-99999-77777-5~----5~-|
E|-------------------------------------------------------|

"No love, no life.."
11.
G|-------------------------------------------------------|
D|-----------------------7----7---7----------------------|
A|-00000000-00000000-55-5---55--55--99999-77777-5~----5~-|
E|-------------------------------------------------------|

Verse
"See this is real.."
12.
G|-----------------------------------------|
D|-----------------------------------------|
A|-------------------------------5555-5555-|--x2
E|-2222-2222-0000-0000-5555-5555-----------|

Chorus
"sail away.."
13.
G|-------------------------------------------------------------------|
D|---------------------7--7----7--7---------------------7--7----7--7-|
A|-----------------5555-55-5555-55------------------5555-55-5555-55--|
E|-0000000-2222222------------------0000000-2222222------------------|

"Cry away..."
14.
G|---------------------------------------------------------------|
D|---------------------------------------------------------------|
A|----------------------------------7777777-9999999-55555555-55x-|
E|---------------------------------------------------------------|

Outro
"Alone, she cries.."
15.
G|-------------------------------------------------------|
D|-------------------------------------------------------|
A|-00000000-00000000-5555-55-55-555-99999-77777-5~----5~-|
E|-------------------------------------------------------|

"No love, no life.."
16.
G|-------------------------------------------------------------------|
D|-----------------------7----7---7----------------------------------|
A|-00000000-00000000-55-5---55--55--99999-77777-5~----5~----5~----5~-|
E|-------------------------------------------------------------------|

17.
G|-----------------------------------------|
D|-----------------------------------------|
A|---------------------5555-5555-5555-5555-|--x4
E|-2222-2222-0000-0000---------------------|

18.
G|-------------------------------------------------------|
D|-------------------------------------------------------|
A|-00000000-00000000-5555-55-55-555-99999-77777-5~----5~-|
E|-------------------------------------------------------|

"No love, no life.."
19.
G|-------------------------------------------------------------------|
D|-----------------------7----7---7----------------------------------|
A|-00000000-00000000-55-5---55--55--99999-77777-5~----5~----5~----5~-|
E|-------------------------------------------------------------------|

20.
G|--------------|
D|--------------|
A|--------------|
E|-00000x----2x-|

Lyrics:

Gone again she said
heading for the longest road
One too many times
He's beaten you down to the bone

So you sail away into the unknown
Stay away he said Don't ever come back home
Cry away the days that last so long
All alone Just stay away Stay away

Weakened from the pain
that he left inside your heart
Fallin' in the rain
cause your whole life has fall'n apart

Alone, she cries
Filled with hate inside
No love, no life
Without that loser who once said
"Here's your kiss goodbye"

See this is real, she doesn't feel
Lonely hearts, shattered dreams
There's nothing better in this place
Nothing but memories in your mind

+++++++++++++++++++++++++++++++++++++++++++++

6. Dipshit

Tuning: EADG

Intro
1.
G|---------------------|
D|---------------------|
A|-55x--00x--22x-------|--x2
E|---------------2-333-|

2.
G|-------------------------------------------------------|
D|------------------------------------------999999-------|
A|-555555-000000-222222-------555555/777777--------------|
E|----------------------2-333----------------------2-333-|

3.
G|--------------------------------------------------|
D|--------------------------------------------------|
A|-222-0------222-0-55----222-0-------222222-000000-|
E|-------3x------------3x-------3x------------------|

Verse
"He said you want my heart in yours.."
4.
G|------------------------------------------------------------|
D|----------------------------------------------7-------------|
A|-------------------------------------55555-0-5-5------------|--x2
E|-33333333-33333333-55555555-55555555--------------222---333-|

"Use your mind you dipshit.."
5.
G|-------------------------------------|
D|-------------------------------------|
A|-------------------------------------|
E|-33333333-33333333-55555555-55555555-|

Pre-Chorus
"Im wondering.."
6.
G|--------------------------------------------------|
D|--------------------------------------------------|
A|-222-0------222-0-55----222-0-------222222-000000-|
E|-------3x------------3x-------3x------------------|

Chorus
"Wrong, what they say is wrong.."
7.
G|--------------------------------|
D|--------------------------------|
A|-55555x----------22222x---------|--x4
E|---------33333x----------55555x-|

Outro
8.
G|---------------------|
D|---------------------|
A|-55x--00x--22x-------|
E|---------------2-333-|

9.
G|-------------------------------------------|
D|-------------------------------------------|
A|-555555-000000-222222--------222-0---------|
E|----------------------2-333--------3x--3-3-|

Verse
"Over and over I hear your voice.."
10.
G|------------------------------------------------------------|
D|----------------------------------------------7-------------|
A|-------------------------------------55555-0-5-5------------|--x2
E|-33333333-33333333-55555555-55555555--------------222---333-|

"Use your mind you dipshit.."
11.
G|-------------------------------------|
D|-------------------------------------|
A|-------------------------------------|
E|-33333333-33333333-55555555-55555555-|

Pre-Chorus
"Im wondering.."
12.
G|--------------------------------------------------|
D|--------------------------------------------------|
A|-222-0------222-0-55----222-0-------222222-000000-|
E|-------3x------------3x-------3x------------------|

Chorus
"Wrong, what they say is wrong.."
13.
G|--------------------------------|
D|--------------------------------|
A|-55555x----------22222x---------|--x4
E|---------33333x----------55555x-|

Outro
"Your suffering..Is running thin.."
14.
G|----------------------------------------------------------------|
D|----------------------------------------------------------------|
A|-2~-----------2~----5~--4~--22222222----------22222222----------|
E|-------3~----------------------------33333333----------55555555-|

Chorus
"Wrong, what they say is wrong.."
15.
G|----------------------------------------------------|
D|-------5~----------------------5~-------------------|
A|-5~----------2~----------5~----------22222x---------|
E|-------------------5~------------------------55555x-|

16.
G|--------------------------------|
D|--------------------------------|
A|-55555x----------22222x---------|--x2
E|---------33333x----------55555x-|

Outro
17.
G|------------------------------------------------------------|
D|------------------------------------------------------------|
A|-555555--------222222--------555555--------222222--------5~-|
E|--------333333--------555555--------333333--------555555----|

Lyrics:

He said you want my heart in yours
For some popularity
But what am I? She said I want you by my side
To impress all above,but it's true love..
Use your mind you dipshit
I'm wondering why not just let me live on my own?
On my own...

Wrong, what they said is wrong.
Don't struggle waste your energy, they're wrong.
What they said is wrong.
And this silence calms my ears.

Over and over I hear your voice calling out my name
Told jealousy, you're adding questions to my fame
Try to figure out our lives, it's us you want to live
Hold your tongue you dipshit
I'm wondering why not just let me live on my own?
On my own...

Your suffering, is running thin
There's changes in your face and
Asking for love, isn't too much
Get a life and get another one to talk about

+++++++++++++++++++++++++++++++++++++++++++++++++++++

7. Just A Memory

Tuning:EADG

Intro
1.
G|-------------------------------------------|
D|-------------------------------------------|
A|---------------------------------5555-5555-|--x2
E|-2222-4444/5555-5555--2222-4444x-----------|

Verse
"The sadness comes.."
2.
G|---------------------------------------------------------|
D|---------------------------------------------------------|
A|-----------------------------------------5555555-7777777-|--x2
E|-2-0-5555555-4444444-4444444-5-4-2222222-----------------|

Pre-Chorus
"Just when I thought.."
3.
G|---------------------------------------------|
D|---------------------------------------------|
A|--------------------------------7-5-4-5-4-0x-|
E|-222222222-444444444-555555555x--------------|

"My stomach's full of butterflies.."
4.
G|-----------------------------------------|
D|-----------------------------------------|
A|-----------------------------------------|
E|-222222222-444444444-555555555-000000000-|

Chorus
"I remember you and me.."
5.
G|-----------------------------------------------------|
D|-----------------------------------------------------|
A|-555555555-------------------------55555555-77777777-|--x2
E|-----------5555555-5-4-0-222-22222-------------------|

Outro
"In my head.."
6.
G|-------------------------------------------|
D|-------------------------------------------|
A|---------------------------------5555-5555-|--x2
E|-2222-4444/5555-5555--2222-4444x-----------|

Verse
"The love that I have for you..."
7.
G|---------------------------------------------------------|
D|---------------------------------------------------------|
A|-----------------------------------------5555555-7777777-|--x2
E|-2-0-5555555-4444444-4444444-5-4-2222222-----------------|

Pre-Chorus
"Just when I thought.."
8.
G|---------------------------------------------|
D|---------------------------------------------|
A|--------------------------------7-5-4-5-4-0x-|
E|---------------------------------------------|

"My stomach's full of butterflies.."
9.
G|-----------------------------------------|
D|-----------------------------------------|
A|-----------------------------------------|
E|-222222222-444444444-555555555-000000000-|

Chorus
"I remember you and me.."
10.
G|-----------------------------------------------------|
D|-----------------------------------------------------|
A|-555555555-------------------------55555555-77777777-|--x2
E|-----------5555555-5-4-0-222-22222-------------------|

Outro
"So stop me now.."
11.
G|-------------------------------------------------------------------------|
D|-------------------------------------------------------------------------|
A|-55555555-55555555-77777777-77777777-------------------------------------|--x2
E|-------------------------------------55555555-44444444-22222222-00000000-|

"Cause I dont want to be.."
12.
G|-------------------------------------------------------------------|
D|-------------------------------------------------------------------|
A|-55555555-55555555-7~------------------------------------5555-5555-|
E|-------------------------2222-4444/5555-5555--2222-4444x-----------|

13.
G|----------------Cause-I-Dont-Want-To-Be-Just-A-Memory-To-You-|
D|-------------------------------------------------------------|
A|----------------------55555555-55555555-7~-------------------|
E|-2222-4444/5555-5555--------------------------2~-------------|

Lyrics:

The sadness comes when it's least expected
It shot out of the dark, and slammed in our face
The hurt it brings can't be stopped
The hurt it brings can't be cured, oh

Just when I thought things were alright
You came in and broke my heart
My stomach's full of butterflies
The thought of you gone, it tears me apart

I remember you and me when we used to
Laugh all night until we fell asleep, oh
And i know we're through
But i've still got thoughts of you left inside my head
Well... in my head...

The love that I have for you
Is done and dead, it's so far away
And you're still here in my head
And you're still here, you'll never leave my heart

So stop me now
Stop my thoughts cause you're killin me
But you don't know
Though we've grown apart
I'll still be there for you
Cause I don't wanna be just a memory to you
Cause I don't wanna be just a memory to you

++++++++++++++++++++++++++++++++++++++++++++++++++++++++++++++++++++++++++=

8. Face The Truth

Tuning: EADG

Intro
1.
G|-----------------------|
D|-2~--------2-0---------|
A|---------------2-0-2---|
E|---------------------3-|

Verse
"You take a look around.."
2.
G|----------|
D|-4~-5~----|
A|-------3~-|--x4
E|----------|

Chorus
"Its been so long.."
3.
G|-------------------------------------------------------------------------------|
D|---------------------------2~------------------------2~----------------4~-5~-0-|
A|-------3~------------------------3~----------3/5~----------3~------------------|
E|-0~----------3~----3~-2~-3-------------3~------------------------3~------------|

"Even if you dont want to.."
4.
G|----------------------------|
D|----------------------------|
A|-------3~----------5~-------|
E|-0~----------3~----------0~-|

Verse
"You take a look around.."
5.
G|----------|
D|-4~-5~----|
A|-------3~-|--x4
E|----------|

Chorus
"You wait to say goodbye.."
6.
G|-------------------------------------------------------------------------|
D|-------------------------------------------------------------------------|
A|----------33333333----------------------------33333333----------55555555-|
E|-00000000----------33333333-22223333-00000000----------33333333----------|

"A broken heart comes crashing down.."
7.
G|-------------------------------------------------------------------|
D|-------------------------------------------------------------------|
A|----------33333333----------------------------33333333----------5~-|
E|-00000000----------33333333-22223333-00000000----------33333333----|

Outro
"You gotta face the truth.."
8.
G|---------------|
D|-2~------------|
A|----2~-3~-3/5~-|--x4
E|---------------|

Verse
"You take a look around.."
9.
G|----------|
D|----------|
A|-------3~-|--x4
E|-2~-3~----|

Chorus
"You wait to say goodbye.."
10.
G|-------------------------------------------------------------------------|
D|-------------------------------------------------------------------------|
A|----------33333333----------------------------33333333----------55555555-|
E|-00000000----------33333333-22223333-00000000----------33333333----------|

"A broken heart comes crashing down.."
11.
G|-------------------------------------------------------------------|
D|-------------------------------------------------------------------|
A|----------33333333----------------------------33333333----------5~-|
E|-00000000----------33333333-22223333-00000000----------33333333----|

Outro
12.
G|-----------------------------|
D|-222222----------------------|
A|--------222222-333333-555555-|--x4
E|-----------------------------|

13.
G|------------------------------------------------------|
D|------------------------------------------------------|
A|-------3~----------3~----------3~------------55-555-5-|
E|-0~----------0~----------0~----------33-333-3---------|

14.
G|----------------------------------------------------------------|
D|----------------------------------------------------------------|
A|-------3~----------3~----------3~-------------55555555-55555555-|
E|-0~----------0~----------0~----------33-333-3-------------------|

Chorus
"You wait to say goodbye.."
15.
G|-------------------------------------------------------------------------|
D|-------------------------------------------------------------------------|
A|----------33333333----------------------------33333333----------55555555-|
E|-00000000----------33333333-22223333-00000000----------33333333----------|

"A broken heart comes crashing down.."
16.
G|----------------------------------------------------------------------------|
D|----------------------------------------------------------------------------|
A|----------33333333----------------------------33333333----------55555555-7~-|
E|-00000000----------33333333-22223333-00000000----------33333333-------------|

Lyrics:

You take a look around.
You don't like what you see.
There's people you don't know.
But you know they care.

It's been so long since you've heard the hurting words.
I care for you, and it's right this time.
Forget your past, and see what is now.
Even if you don't want to, you gotta face the truth.
You gotta face the truth.

You wait to say good-bye.
"Someday" may come along.
Not thinking of reality.
You make the most of your lies.
A broken heart comes crashing down.
From your stab from behind.
Not willing to admit the truth?
Just face the truth.

Why don't you care?

++++++++++++++++++++++++++++++++++++++++++++++++++++++++

9. Raining In September

Tuning: EADG

Ok, I dunno if its my CD
but the song I have for "Raining In September"
lasts only 0:38..
And I think thats wrong :S
Anyway, it goes somethng like this...

1.
G|--------------------------|
D|--------------------------|
A|---------------------3/8~-|
E|-5~----1~----1/5~---------|

2.
G|-------------------------------------------------------------------------|
D|-------------------------------------------------------------------------|
A|-------------------------------------------------------88888888-88888888-|
E|-55555555-55555555-11111111-11111111-55555555-55555555-------------------|

3.
G|-------------------------------------------------------------------------|
D|-77777777-77777777-33333333-33333333/77777777-77777777-------------------|
A|-------------------------------------------------------------------------|
E|-------------------------------------------------------11111111-11111111-|

4.
G|-------------------------------------------------|
D|-------------------------------------------------|
A|-------------------------------------8~-8--8~-8x-|
E|-5~-5--5~-5--1~-1--1~-1--5~-5--5~-5--------------|

++++++++++++++++++++++++++++++++++++++++++++++++++++++++++

10. Road To Recovery

Tuning: EADG

Intro
1.
G|-9------9------9/10-10------10------10----9------9------9/10-10------10------10---|
D|--10-10--10-10--------10-10---10-10---10---10-10--10-10--------10-10---10-10---10-|
A|----------------------------------------------------------------------------------|
E|----------------------------------------------------------------------------------|

2.
G|-5--------------5---------------|
D|--77777-5-55555---77777-5-55555-|
A|--------------------------------|
E|--------------------------------|

3.
G|-9------9------9/10-10------10------10----9------9------9/10-10------10------10---|
D|--10-10--10-10--------10-10---10-10---10---10-10--10-10--------10-10---10-10---10-|
A|----------------------------------------------------------------------------------|
E|----------------------------------------------------------------------------------|

4.
G|-5--------------5---------------|
D|--77777-5-55555---77777-5-55555-|
A|--------------------------------|
E|--------------------------------|

5.
G|-5------4-5------5------4-5-----5--5--5--5--5--5--5--5--5--5--5--5--|
D|--33-33----3-33---55-55----5-55--77-77-7--55-55-5--77-77-7--55-55-5-|
A|--------------------------------------------------------------------|--x2
E|--------------------------------------------------------------------|

6.
G|-------------------------------------|
D|-------------------------------------|
A|-------------------------------------|
E|-11111111-11111111-33333333-33333333-|

Verse
"He never thought someone would come along.."
7.
G|-------------------------------------------------------------------------|
D|-------------------------------------------------------------------------|
A|-------------------------------------33333333-33333333-------------------|--x2
E|-55555555-55555555-11111111-11111111-------------------33333333-33333333-|

Chorus
"This road to recovery.."
8.
G|-------------------------------------------------------------------------|
D|-------------------------------------------------------------------------|
A|-55555555-55555555/88888888-88888888-33333333-33333333-------------------|--x2
E|-------------------------------------------------------33333333-33333333-|

Outro
9.
G|---5---------4---------5---------4----|
D|-3---3~----5---5~----7---7~----5---5~-|
A|--------------------------------------|--x2
E|--------------------------------------|

10.
G|-------------------------------------|
D|-33333333-33333333-55555555-55555555-|
A|-------------------------------------|
E|-------------------------------------|

Verse
"Well he lost control and gave up his heart.."
11.
G|-------------------------------------------------------------------------|
D|-------------------------------------------------------------------------|
A|-------------------------------------33333333-33333333-------------------|--x2
E|-55555555-55555555-11111111-11111111-------------------33333333-33333333-|

Chorus
"This road to recovery.."
12.
G|-------------------------------------------------------------------------|
D|-------------------------------------------------------------------------|
A|-55555555-55555555/88888888-88888888-33333333-33333333-------------------|--x2
E|-------------------------------------------------------33333333-33333333-|

Outro
13.
G|---5---------4---------5---------4----|
D|-3---3~----5---5~----7---7~----5---5~-|
A|--------------------------------------|--x2
E|--------------------------------------|

14.
G|-------------------------------------|
D|-33333333-33333333-55555555-55555555-|
A|-------------------------------------|
E|-------------------------------------|

Bass Solo
15.
G|----55-77-5h9~-5-7--5h7-4~----99-77-5h7~--7--5h7-4~-|
D|-77---------------7--------55------------7-7--------|
A|----------------------------------------------------|
E|----------------------------------------------------|

16.
G|---5~-4-5~----5~-4----4-------5--5--5--5---4--4--4--4-|
D|-33---------55-----5~---5~--77-77-77-77--55-55-55-55--|
A|------------------------------------------------------|
E|------------------------------------------------------|

"Well love is a bitch.."
17.
G|-------------------------------------|
D|-33333333-33333333-55555555-55555555-|
A|-------------------------------------|
E|-------------------------------------|

"What happens now?"
18.
G|-------------------------------------------------------------------------|
D|-------------------------------------------------------------------------|
A|-33333333-33333333-22222222-22222222-00000000-00000000-------------------|--x2
E|-------------------------------------------------------33333333-33333333-|

"How do I let go of a love.."
19.
G|-------------------------------------------------------------------------|
D|-------------------------------------------------------------------------|
A|-------------------------------------------------------33333333-22222222-|--x2
E|-11111111-33333333/55555555-33333333-11111111-33333333-------------------|

"You're still all I see..'
20.
G|-------------------------------------|
D|-33333333-33333333-55555555-55555555-|
A|-------------------------------------|
E|-------------------------------------|

"This road to recovery.."
21.
G|---------------------------------------------------------------|
D|---------------------------------------------------------------|
A|---------------------------------------------------------3-2---|
E|-55555555-33333333-11111111-33333333-55555555-33333333-11---3~-|

"This road to recovery.."
22.
G|-------------------------------------------------------------------------|
D|-------------------------------------------------------------------------|
A|-------------------------------------------------------------------------|
E|-55555555-33333333-11111111-33333333-55555555-33333333-11111111-33333333-|

"Taken all I have.."
23.
G|---------------------------|
D|---------------------------|
A|---------------------------|
E|-5~-------3~-------1~------|

Lyrics:

He never thought someone would come along
And show him a feeling he's always dreamed of.
She didn't plan on falling in love.
Upset the balance she's wanted so long.

This road to recovery
Has taken all I have.
It seems hard
As I try to succumb once again...again...

Well he lost control and gave up his heart.
To follow the girl that he's always dreamed of.
She pulled away so scared of a love
That might have been more than she had planned on.

Well love is a bitch all relationships end.
What happens now
When that persons gone.
The one who you thought
You could always count on.
You fall in love
And they fall out.
Love is a bitch.
All realationships end.

How do I let go of a love
That meant so much to me.
How do I go on
When your part of me.
I'm dying inside
Each time I see you.
Don't lose sight of me
Cause you're all I see.
Your still all I see.
This road to recovery has taken all I have.

++++++++++++++++++++++++++++++++++++++++++++++++++++

11. Stop Whining

Tuning: EADG

Intro
1.
G|---------------------------------------------------------------------------------|
D|-10-10--10-10-10--10-10-10--10-10-10--10-10-10--10-10-10--10-10-10--10-10-10--10-|
A|-8--8---8--8--8---8--8--8---8--8--8---8--0--0---0--0--0---0--0--0---0--0--0---0--|
E|---------------------------------------------------------------------------------|

2.
G|---------------------------------------------------------------------------|
D|-10-10--10-10-10--10-10-10--10-10-10--10-10-10--10-10-10--10-10-10--10-10x-|
A|-8--8---8--8--8---8--8--8---8--8--8---8--0--0---0--0--0---0--0--0---0------|
E|---------------------------------------------------------------------------|

3.
G|------------------------------------------------------------------------------|
D|---------------------------------------------------------------10-12/14-10-12-|
A|-----------------00-000-000-000-0----------------1212-121212-12---------------|
E|-11-111-111-111-1----------------11-111-111-111-1-----------------------------|

4.
G|-------------------------------------------------------------------------------|
D|---10--10--10--10--10--10--10--10--10--10--10--10-10101010\9999\7777-----------|
A|-88--88--88--88--00--00--00--00--88--88--88--88---------------------10101010-7-|
E|-------------------------------------------------------------------------------|

Verse
"So close to.."
5.
G|------------------------------------------------------------------------|
D|------------------------------------------------------------------------|
A|-88888888------------------------------------55555555-------------------|--x2
E|---------88888888\55555555-55555555/88888888----------55555555\33333333-|

Chorus
"So close your eyes.."
6.
G|----------------------------------------------------------------------|
D|----------------------------------------------------------------------|
A|-88888888-888887---------1010-8-7-55555555-55555555-------------------|--x2
E|----------------88888888----------------------------55555555-33333333-|

Outro
"Dead.."
7.
G|--------------|
D|--------------|
A|-55/77/88/11~-|
E|--------------|

8.
G|--------------------------------------------------------------------------------|
D|---------------------------------------------------10101010\9999\7777-----------|
A|-----------------00-000-000-000-0/88-888-888-888-8-------------------10101010-7-|
E|-11-111-111-111-1---------------------------------------------------------------|

Verse
"Always feel discomfort.."
9.
G|------------------------------------------------------------------------|
D|------------------------------------------------------------------------|
A|-88888888------------------------------------55555555-------------------|--x2
E|---------88888888\55555555-55555555/88888888----------55555555\33333333-|

Chorus
"So close your eyes.."
10.
G|----------------------------------------------------------------------|
D|----------------------------------------------------------------------|
A|-88888888-888887---------1010-8-7-55555555-55555555-------------------|--x2
E|----------------88888888----------------------------55555555-33333333-|

"If you really did.."
11.
G|----------------------------------------------------------|
D|----------------------------------------------------------|
A|-55555555-555557------------------------------3x-3x-3x-3x-|
E|----------------11111/44444-55555-33333-11111-------------|

"Its just a cop out.."
12.
G|--------------------------------------------------------|
D|--------------------------------------------------------|
A|-55555555-555557----------------------------------------|
E|----------------11111/44444-55555-33333-11111-4444-4444-|

"You analyze it.."
13.
G|-----------------------------------------------------------|
D|-----------------------------------------------------------|
A|----------2h3-----------33------------333/8-----------33---|
E|-55555-----------11111----33----55555----------11111----33-|

"Its gettin older these days.."
14.
G|-----------------------------------------------------------------------|
D|-----------------------------------------------------------------------|
A|--------------2h3333---------33---0000-0000/3333-3333/5555-5555/77777x-|
E|-55555555-5555-------11111111--33--------------------------------------|

Chorus
"So close your eyes.."
15.
G|-----------------------------------------------------------------------|
D|-----------------------------------------------------------------------|
A|-88888888-888887-------------------55555555-55555555-------------------|--x2
E|-----------------88888888-88888888-------------------55555555-33333333-|

Outro
"Dead.."
16.
G|--------------|
D|--------------|
A|-55/77/88/11~-|
E|--------------|

Lyrics:

So close to no one that
You care for, cause you don't care
It's not worth it, can't think straight
So take your pill, and stop whining

So close your eyes
And think of your lies
Behind the wall of innocence lost
Think of family, and think of your friends
Think about all these thoughts will be gone when you're dead... dead

Always feel discomfort
Always feel alone well who cares about it
Cant find a good reason
To stay here so stop whining

If you really did want to end your life
You'd be gone by now
It's just a cop out you can't pull through
You don't know what to do

You analyze it
But you can't see straight
You don't know what to think
Don't blame your shit on me
It's getting older these days
Just keep on passing by
Leave me alone

++++++++++++++++++++++++++++++++++++++++++++++++++++++++++++++

12. Selfishness

Tuning: EADG

Intro.   x3
1.
G|----------------|
D|----------------|
A|-6~--4~------2~-|
E|---------2~-----|

2.
G|----------------|
D|-8~--6~--4~-----|
A|-------------2~-|
E|----------------|

3.
G|-----------------------------|
D|-----------------------------|
A|-222222-444444-666666-444444-|
E|-----------------------------|

4.
G|-----------------------------|
D|-----------------------------|
A|-222222-444444-666666-44-4-4-|
E|-----------------------------|

Verse
"Harden up to everyone.."             x2
5.
G|---------------------------------------------------------------------|
D|---------------------------------------------------------------------|
A|-1111111111111111-2222222222222222-----------------------------------|
E|-----------------------------------2222222222222222-1111111111111111-|

Pre-Chorus
"Your selfishness, is wearing thin.."  x4
6.
G|-----------------------------|
D|-----------------------------|
A|-222222-444444-666666-444444-|
E|-----------------------------|

Chorus
"Alone and strong..."
7.
G|---------------------------------|
D|-444444-333333-------------------|
A|---------------2222222-6666-4444-|--|
E|---------------------------------|  |
                                      |
"To selfishness.."                    |
8.                                    |-- x2
G|-----------------------------|      |
D|-----------------------------|------|
A|-222222-222222-444444-444444-|
E|-----------------------------|

Outro.    x4 
9.
G|-----------------------------|
D|-----------------------------|
A|-222222-444444-666666-444444-|
E|-----------------------------|

"Harden up.."       x2
10.
G|---------------------------------------------------------------------|
D|---------------------------------------------------------------------|
A|-1111111111111111-2222222222222222-----------------------------------|
E|-----------------------------------2222222222222222-1111111111111111-|

Pre-Chorus
"Your selfishness.."    x4
11.
G|-----------------------------|
D|-----------------------------|
A|-222222-444444-666666-444444-|
E|-----------------------------|

Chorus
"Alone and strong..."
12.
G|---------------------------------|
D|-444444-333333-------------------|
A|---------------2222222-6666-4444-|--|
E|---------------------------------|  |
                                      |
"To selfishness.."                    |
13.                                   |-- x2
G|-----------------------------|      |
D|-----------------------------|------|
A|-222222-222222-444444-444444-|
E|-----------------------------|

Outro  x2
14.
G|----------------------------------------|
D|----------------------------------------|
A|-22x-222x-666x-444x-222x-222x-666x-444x-|
E|----------------------------------------|

15.
G|--------------------------------|
D|--------------------------------|
A|-2~---4-2~---4-2~---4-2~---4-2~-|
E|--------------------------------|

Chorus
"Why don't you.." x3
16.
G|-----------------------------|
D|-----------------------------|
A|-666666-444444--------222222-|
E|---------------222222--------|

17.
G|-----------------------------|
D|-888888-666666-444444--------|
A|----------------------222222-|
E|-----------------------------|

Outro.  *Faster this time..
18.
G|----------------------------------------|
D|----------------------------------------|
A|-22x-222x-666x-444x-222x-222x-666x-444x-|
E|----------------------------------------|

Ok.. :D

+++++++++++++++++++++

Lyrics:

Harden up to everyone.
Emotion's all dead.
Face first in the mudd.
A lost cause, upsidedown.

Your selfishness, is wearing thin.
Alone and strong.
Not giving in to selfishness to anyone.
If anything turns inside out look to the cloudiness in your eyes.

Turning anger to your friends.
Blaming things on them.
Breaking rules and promises.
Blaming faces, unknown.

Why don't you look beyond those days?
They're gone.
See through the shadows of these days.
One darkened day, turned blue.
These lights shone through.
These lights shone...These lights shone through.

+++++++++++++++++++++++++++++++++++++++++++++++++++++++++++++

13. Tears

Tuning: Drop D

Intro
1.
|--------------------|
|--------------------|
|-0~---2~-3~---------|--x2
|------------1~---3~-|

Chorus
2.
|-----------------------------------|
|-----------------------------------|
|-0x-0-------------0x-0-------------|
|-----1-0-11111111-----1-0-11111111-|

3.
|-----------------------------|
|-----------------------------|
|-0x-0-------------0x-0-------|
|-----1-0-11111111-----1-0-1~-|

Verse
"I sit and hear you sleep.." x2
4.
|--------------------|
|------------3~---5~-|
|-0~---2~-3~---------|
|--------------------|

"I talk to you.." x2
5.
|-----------------------------------------------------------|
|-----------------------------333333-333333-555555-555555---|
|-000000-000000-222222-333333-------------------------------|
|-----------------------------------------------------------|

Chorus
"Tears are feelings we can't say.."
6.
|-------------------------------------------|
|-------------------------------------------|
|-0-0000-0-------------0-0000-0-------------|
|---------1-0-11111111---------1-0-11111111-|

"Tears are mixed emotions.."
7.
|-------------------------------------|
|-------------------------------------|
|-0-0000-0-------------0-0000-0-------|
|---------1-0-11111111---------1-0-1~-|

Outro
"The pouring rain.."       x2
8.
|-2~-5~---------------|
|-------5~-2~-3~---5~-|
|---------------------|
|---------------------|

Verse
"I sit and watch you.."   x2
9.
|--------------------|
|------------3~---5~-|
|-0~---2~-3~---------|
|--------------------|

Pre-Chorus
"And I tell you.."
10.
|-----------------------------------------------------|
|--------------------------3333333x---5555555-5555555-|
|-0000000x---222222-333333----------------------------|
|-----------------------------------------------------|

Chorus
"Tears are feelings we can't say.."
11.
|-------------------------------------------|
|-------------------------------------------|
|-0-0000-0-------------0-0000-0-------------|
|---------1-0-11111111---------1-0-11111111-|

"Tears are mixed emotions.."
12.
|-------------------------------------|
|-------------------------------------|
|-0-0000-0-------------0-0000-0-------|
|---------1-0-11111111---------1-0-1~-|

Outro
"It's the light.."  x4
13.
|-----------------|
|-----------------|
|-----------------|
|-000-111-333-333-|

14.
|-555555-444444-555555-999-777-|
|------------------------------|
|------------------------------|   x4
|------------------------------|

Chorus
"Tears are feelings we can't say.."
15.
|-------------------------------------------|
|-------------------------------------------|
|-0-0000-0-------------0-0000-0-------------|
|---------1-0-11111111---------1-0-11111111-|

"Tears are mixed emotions.."
16.
|-------------------------------------|
|-------------------------------------|
|-0-0000-0-------------0-0000-0-------|
|---------1-0-11111111---------1-0-1~-|

+++++++++++++++++++++++++++

Lyrics:

I sit and hear you sleep
I don't want to go
Your there beside me
But you're so far away
I talk to you
While you're asleep
You can't say a word
You can hear everything

Tears are feelings we cant say
Tears mean that you care
Tears are mixed emotions
Tears are more than tears

The pouring rain
From my eyes
Means to much
To keep inside

I sit and watch you
Leave my life forever
I know you'll be gone so long
My last words are nothing
And I tell you I care
And nothing more
I can't say how I feel
So I cry

It's the light
Behind the shadow
That sacred face
Behind the mask

+++++++++++++++++++++++++++++++++++++++++++++

14. Save The World

Tuning: EADG

Intro
1.
G|-----------------------------|
D|-2~------------------1h2-----|
A|----2~-4x----4-2x-------1h2--|
E|---------------------------4-|

2.
G|---------------------------------------|
D|---------------------------------------|
A|-44444444-4444-4x-2x-00000000-00000000-|
E|---------------------------------------|

3.
G|-----------------------------------|
D|------------2h4p2----------1h2-----|
A|-44444444-44------00000000----1h2--|
E|---------------------------------4-|

4.
G|-------------------------------------|
D|------------------1x-22222222/6666/9-|
A|-44444444-4444-4x--------------------|
E|-------------------------------------|

5.
G|-----------------------------------------------|
D|-----------------1h2---------------------------|
A|-2-4x-4-0-2--2-4x----0h2--2-4x-4-0-2-----------|
E|-------------------------------------00-0-44-4-|

6.
G|---------------------2h4-----------------------|
D|-----------------1h2---------------------------|
A|-2-4x-4-0-2--2-4x---------2-4x-4-0-2-----------|
E|-------------------------------------00-0-44-4-|

Verse
"You pull me by the arm.."
7.
G|-----------------------------------------------------------------------|
D|-----------------------------------------------------------------------|
A|-00000000-00000000-22222222-22222222-44444444-22222222-00000000-00000--|--x2
E|---------------------------------------------------------------------4-|

"Believe.."
8.
G|-------------------------------------|
D|-------------------------------------|
A|-00000000-00000000-22222222-22222222-|
E|-------------------------------------|

Chorus
"Lets save the world.."
9.
G|-------------------------------------------------------------------------|
D|-22222222-22222222-------------------------------------------------------|
A|-------------------00000000-00000000-44444444-44444444-00000000-22222222-|--x2
E|-------------------------------------------------------------------------|

Outro
10.
G|----------------------------------|
D|-------2------------------1h2-----|
A|----024--4x-4x-4x-4-2x-------1h2--|
E|-024----------------------------4-|

11.
G|--------------------------------------|
D|------------------------------1h2-----|
A|-44444444-4444-4x-2x-00000000----1h2--|
E|------------------------------------4-|

Verse
"So spread the word.."
12.
G|-------------------------------------------------------------------------|
D|----------------------------------------------22222222-------------------|
A|-44444444-00000000----------22222222-44444444----------00000000-22222222-|
E|-------------------44444444----------------------------------------------|

"Well to live.."
13.
G|------------------------------------------------4------------------------|
D|----------------------------------------------22-22222-------------------|
A|-44444444-00000000----------22222222-44444444----------00000000-22222222-|
E|-------------------44444444----------------------------------------------|

"You pull me by the arm.."
14.
G|-----------------------------------------------------------------------|
D|-----------------------------------------------------------------------|
A|-00000000-00000000-22222222-22222222-44444444-22222222-00000000-00000--|--x2
E|---------------------------------------------------------------------4-|

"Believe.."
15.
G|-------------------------------------|
D|-------------------------------------|
A|-00000000-00000000-22222222-22222222-|
E|-------------------------------------|

Chorus
"Lets save the world.."
16.
G|-------------------------------------------------------------------------|
D|-22222222-22222222-------------------------------------------------------|
A|-------------------00000000-00000000-44444444-44444444-00000000-22222222-|--x2
E|-------------------------------------------------------------------------|

Outro
17.
G|-----------|
D|-----------|
A|-0000-2222-|
E|-----------|

18.
G|-----------------------------------------------------|
D|-----------------------------------------------------|
A|-44-444-44-44-22-222-22-22---------------------------|--x2
E|---------------------------00-000-00-00-55-555-55-55-|

19.
G|---------------------------------|
D|---------------------------------|
A|-4-4-4-4-2-2-2-2-----------------|--x2
E|-----------------0-0-0-0-5-5-5-5-|

20.
G|----------------------------------------|
D|----------------------------------------|
A|-4~--4-4~--2~--2-2~---------------------|
E|---------------------0~--0-0~--5~--5-5~-|

Chorus
"Lets save the world.."
21.
G|-------------------------------------------------------------------------|
D|-22222222-22222222-------------------------------------------------------|
A|-------------------00000000-00000000-44444444-44444444-00000000-22222222-|
E|-------------------------------------------------------------------------|

"Dont question the thought.."
22.
G|-------------------------------------------------------------------|
D|-22222222-22222222-------------------------------------------------|
A|-------------------00000000-00000000-44444444-44444444-0~--0-2~--2-|
E|-------------------------------------------------------------------|

Outro
23.
G|--------------------------------------------|
D|-2-2-222-22---------------------------------|
A|------------0-0-000-00-4-4-444-44-0-00-2-22-|--x2
E|--------------------------------------------|

24.
G|----|
D|-2~-|
A|----|
E|----|

Lyrics:

You pull me by the arm
Tell me what to believe
You tell me there is only one way
One way to see
Whatever faith you choose
May not be for me
How can I be saved
While being forced to believe
Believe.

Lets save the world
One by one
Well make them believe
Conform if they must
Dont question the thought
Its whats always been told
Well make them believe
Lets save the world

So spread the word
And tell me of good news
That if I act right
I can be like you
Well to live is to learn
And think for yourself
And ill do just that
I dont need your help 

++++++++++++++++++++++++++++++++++++++++++++++++++++

15. The Wrath

Tuning: EADG

Intro.    
1.
G|-----------------------|
D|-----------------------|
A|-555555555555-666666---|--x4
E|-----------------------|

2.        
G|------------------|
D|------------------|
A|--2---0-----------|--x4
E|-0-3-2-2-0-2------|

3.        
G|------------------|
D|-----4---3-4------|
A|-22-2-222-2-------|--x4
E|------------------|

4.
G|------------------|
D|------------------|
A|-22x--22x-22x-22x-|
E|------------------|

5.   
G|-------------------|
D|-------------------|
A|-2~---10~---9~-----|--Play until song fades..
E|-------------------|

++++++++++++++++++++++++++++++++++++++++++++++++++++++++

Finally done..
I hope u enjoy as much as I enjoyed tabbing them out
and writing down :D

+++++++++++++++++++++++++++++++++
| RaiLeff                       |
| Underground__Dora@Hotmail.Com |
+++++++++++++++++++++++++++++++++
comments
We did not receive enough feedback on this tab! Please rate:
print report bad tab
1 2 3 4 5
5 comments total. Showing first comments.
-1 reply
rufiopunkrock wrote on April 14 2007, 12:50 pm

this tab sucks.......all songs are bad...the wrath is drop D

0 reply
RaiLeff wrote on April 14 2007, 04:49 pm

do u even know what a bass is?

0 reply
RaiLeff wrote on April 26 2007, 08:01 pm

Hey RufioPunkRock, your 'Perhap, I suppose' bass tab
is almost the same as mine, even worse at some parts :S

I want to post or [tab]
guest
You may want to rate the tab now too:
select rating
Please do not post tabs as comments. Select "correction" instead!