Oops, an error
Loading. Please wait.

Walk This Way Tab

ver2
ver2

Whole song

More versions @911Tabs.com
24,398 views 48 this week
1 commentread comment
1 2 3 4 5
excellent!
x 10
Autoscroll
+/-
esc
set tempo
stop
Contributor
WARNING: You are trying to view
                                    content from Ultimate-Guitar.com
                                    in an unauthorized application,
                                    which is prohibited.

                                    Please use an official Ultimate
                                    Guitar Tabs application for iPhone,
                                    iPad or Android to access legitimate
                                    chords, guitar, bass, and drum tabs
                                    from Ultimate-Guitar.com database.

                                    Type "ultimate guitar tabs" in Apple
                                    App Store's or Android Market's
                                    search to find the application.
#----------------------------------PLEASE NOTE---------------------------------#
#This file is the author's own work and represents their interpretation of the #
#song. You may only use this file for private study, scholarship, or research. #
#------------------------------------------------------------------------------#

WALK THIS WAY
As recorded by Run D.M.C. featuring Aerosmith
(From the 1986 Album RAISING HELL)

Transcribed by tonedeafidiot
	

Words and Music by Tyler/Perry

E5
0 2 2 x x x
	
A
x 0 2 2 2 0
	
G5/F#
2 x 0 0 x x
	
A5
x 0 2 2 x x
E5/B
x x x x 0 0

Gtr I (E A D G B E) - 'Untitled'
Gtr II (E A D G B E) - 'Untitled'
Gtr III (E A D G B E) - 'Solo'

 Intro
  Moderately Q=108
 4/4
  Gtr I
  Wx7          H    E E E E   S S S S S S S S E E Q
|------------|--------------|------------------------|
|------------|--------------|------------------------|
|------------|--------------|------------------------|
|------------|--------------|-------2---------2------|
|------------|--------1-1-1-|-0-1-2-----0-1-2--------|
|------------|--------------|-------------------0----|


                    ~~~~~
  S S S S S S S S E E     Q
|------------------------------|
|------------------------------|
|------------------------------|
|-------2---------2-------2----|
|-0-1-2-----0-1-2--------------|
|-------------------3b3.5------|


  S S S S S S S S E E Q    S S S S S S S S E Q.
|------------------------|----------------------------||
|------------------------|----------------------------||
|------------------------|-------------------2--------||
|-------2---------2------|-------2---------2-2--------||
|-0-1-2-----0-1-2--------|-0-1-2-----0-1-2---0--------||
|-------------------0----|----------------------------||
|
| Gtr II
| W                        H               E Q   +E
|------------------------|----------------------------||
|------------------------|----------------------------||
|------------------------|----------------------------||
|------------------------|-------------------7---(7)\-||
|------------------------|-------------------7---(7)\-||
|------------------------|-------------------5---(5)\-||


 Verse
    PM---------------------------------|
    E S  S  +S   S  S  S S  S  E  E  S  S
|------------------------------------------|
|------------------------------------------|
|------------------------------------------|
|--------------------------10--------------|
|-------10-(10)-10-12p10------10-13-12p10--|
|---8-8------------------8-----------------|
|
|   Q        Q           H
|------------------------------------------|
|------------------------------------------|
|------------------------------------------|
|-/10--------------------------------------|
|-/10--------------------------------------|
|--/8--------------------------------------|


  PM----------------------------------------------------------------------------
  E E +S   S  S  S S  S  E  E  S  S   E S  S  +S   S  S  S S  S  E  S  S  S  S
|-----------------------------------|------------------------------------------|
|-----------------------------------|------------------------------------------|
|-----------------------------------|------------------------------------------|
|--------------------10-------------|------------------------10----------------|
|---------10-12p10------10-13-12p10-|-----10-(10)-10-12p10------10-13p10-12p10-|
|-8-8-(8)----------8----------------|-8-8------------------8-------------------|


 -----------------------------------|
  S S S  S  +S   S  S  S S  S  E  E  E
|--------------------------------------|
|--------------------------------------|
|--------------------------------------|
|--------------------------10----------|
|-------10-(10)-10-12p10------10-13-12-|
|-8-8-8------------------8-------------|


  PM-------------------------------------
  E S  S  +S   S  S  S S  S  E  E  S  S
|---------------------------------------|
|---------------------------------------|
|---------------------------------------|
|------------------------10-------------|
|-----10-(10)-10-12p10------10-13-12p10-|
|-8-8------------------8----------------|


 ------------------------------------|
  E S  S  +S   S  S  S S  S  E  E  S  S
|----------------------------------------|
|----------------------------------------|
|----------------------------------------|
|------------------------10--------------|
|-----10-(10)-10-12p10------10-13-12p10--|
|-8-8------------------8-----------------|


  PM----------------------------------------------------------------------|
  E S  S  +S   S  S  S S  S  E  S  S  S  S   E S  S  +S   S  S  S S  S  E Q
|------------------------------------------|----------------------------------|
|------------------------------------------|----------------------------------|
|------------------------------------------|------------------------------2---|
|------------------------10----------------|------------------------10----2---|
|-----10-(10)-10-12p10------10-13p12-12p10-|-----10-(10)-10-12p10------10-0---|
|-8-8------------------8-------------------|-8-8------------------8-----------|


 Interlude
                                             ~~~~~
  S S S S S S S S E E Q    S S S S S S S S E E     Q
|------------------------|----------------------------|
|------------------------|----------------------------|
|------------------------|----------------------------|
|-------2---------2------|-------2---------2-------2--|
|-0-1-2-----0-1-2--------|-0-1-2-----0-1-2------------|
|-------------------0----|-------------------3b3.5----|
|
| Gtr II
| W                        W
|------------------------|----------------------------|
|------------------------|----------------------------|
|------------------------|----------------------------|
|------------------------|----------------------------|
|------------------------|----------------------------|
|------------------------|----------------------------|


  S S S S S S S S E E Q    S S S S S S S S E Q.
|------------------------|-------------------------------|
|------------------------|-------------------------------|
|------------------------|-------------------2-----------|
|-------2---------2------|-------2---------2-2-----------|
|-0-1-2-----0-1-2--------|-0-1-2-----0-1-2---0-----------|
|-------------------0----|-------------------------------|
|
| W                        H               E Q   +E
|------------------------|-------------------------------|
|------------------------|-------------------------------|
|------------------------|-------------------------------|
|------------------------|-------------------7---(7)\----|
|------------------------|-------------------7---(7)\----|
|------------------------|-------------------5---(5)\----|


    PM-------------------------------------------------------------------------
    E S  S  +S   S  S  S S  S  E  E  S  S   E E +S   S  S  S S  S  E  E  S  S
|-----------------------------------------|-----------------------------------|
|-----------------------------------------|-----------------------------------|
|-----------------------------------------|-----------------------------------|
|--------------------------10-------------|--------------------10-------------|
|-------10-(10)-10-12p10------10-13-12p10-|---------10-12p10------10-13-12p10-|
|---8-8------------------8----------------|-8-8-(8)----------8----------------|
|
|   Q        Q           H                  W
|-----------------------------------------|-----------------------------------|
|-----------------------------------------|-----------------------------------|
|-----------------------------------------|-----------------------------------|
|-/10-------------------------------------|-----------------------------------|
|-/10-------------------------------------|-----------------------------------|
|--/8-------------------------------------|-----------------------------------|


 ---------------------------------------|
  E S  S  +S   S  S  S S  S  E  S  S  S  S
|------------------------------------------|
|------------------------------------------|
|------------------------------------------|
|------------------------10----------------|
|-----10-(10)-10-12p10------10-13p10-12p10-|
|-8-8------------------8-------------------|
|
| W
|------------------------------------------|
|------------------------------------------|
|------------------------------------------|
|------------------------------------------|
|------------------------------------------|
|------------------------------------------|


  PM-------------------------------------
  S S S  S  +S   S  S  S  S  S  E  E  E
|---------------------------------------|
|---------------------------------------|
|---------------------------------------|
|---------------------------10----------|
|-------10-(10)-10-12p10-------10-13-12-|
|-8-8-8-------------------8-------------|
|
| Gtr II
| H          S   S  S  S  S  E  S
|---------------11s12----11s12----------|
|---------------10s11-13-10s11-13-------|
|---------------------------------------|
|---------------------------------------|
|---------------------------------------|
|---------------------------------------|


 ------------------------------------------------------------------------------|
   E  S  S  +S   S  S  S S  S  E  E  S  S   E S  S  +S   S  S  S S  S  E  E  S  S
|-----------------------------------------|---------------------------------------|
|-----------------------------------------|---------------------------------------|
|-----------------------------------------|---------------------------------------|
|--------------------------10-------------|------------------------10-------------|
|-------10-(10)-10-12p10------10-13-12p10-|-----10-(10)-10-12p10------10-13-12p10-|
|--8--8------------------8----------------|-8-8------------------8----------------|
|
|  Q     Q       H                          W
|-----------------------------------------|---------------------------------------|
|-13\-------------------------------------|---------------------------------------|
|-12\-------------------------------------|---------------------------------------|
|-----------------------------------------|---------------------------------------|
|-----------------------------------------|---------------------------------------|
|-----------------------------------------|---------------------------------------|


  Gtr I
  PM----------------------------------------
  E S  S  +S   S  S  S S  S  E  S  S  S  S
|------------------------------------------|
|------------------------------------------|
|------------------------------------------|
|------------------------10----------------|
|-----10-(10)-10-12p10------10-13p12-12p10-|
|-8-8------------------8-------------------|


 ---------------------------------|
  E S  S  +S   S  E S  S  E  S  S  E
|-------------------------------------|
|-------------------------------------|
|-------------------------------------|
|---------------------10--------------|
|-----10-(10)-10-12------10-13p10-12--|
|-8-8---------------------------------|


 Chorus
  Gtr II
                       ~~~                                ~~~
   H               E   Q.            H                E   Q.
|---------------------------------|-----------------------------------|
|---------------------11----------|----------------------11-----------|
|---------------------10----------|----------------------10-----------|
|---------------------------------|-----------------------------------|
|---------------------------------|-----------------------------------|
|---------------------------------|-----------------------------------|
|
| Gtr I
|  E.  S  +E   E  +E   S  S  E  E    E S  S  +E   E  +E   E   E  S  S
|---------------------------------|-----------------------------------|
|---------------------------------|-----------------------------------|
|---------------------------------|-----------------------------------|
|---------------------------------|-10---12-(12)-13-(13)-12--10-12p10-|
|-10--12-(12)-13-(13)-12p10-10-12-|--8-8--8--(8)--8--(8)--8---8--8----|
|--8---8--(8)--8--(8)--8-----8--8-|-----------------------------------|


                       ~~~
   H               E   Q.
|----------------------------------|
|---------------------11-----------|
|---------------------10-----------|
|----------------------------------|
|----------------------------------|
|----------------------------------|
|
|  E.  S  +E   E  +E   E   E  S  S
|----------------------------------|
|----------------------------------|
|----------------------------------|
|----------------------------------|
|-10--12-(12)-13-(13)-12--10-12p10-|
|--8---8--(8)--8--(8)--8---8--8----|


                       ~~~                           ~~~
   H               E   Q.        H               E   Q.
|-----------------------------|----------------------------------|
|---------------------11------|---------------------11-----------|
|---------------------10------|---------------------10-----------|
|-----------------------------|----------------------------------|
|-----------------------------|----------------------------------|
|-----------------------------|----------------------------------|
|
|  E.  S  +E   E  +E   E   Q     E.  S  +E   E  +E   E   E  S  S
|-----------------------------|----------------------------------|
|-----------------------------|----------------------------------|
|-----------------------------|----------------------------------|
|-10--12-(12)-13-(13)-12--10--|----------------------------------|
|--8---8--(8)--8--(8)--8---8--|-10--12-(12)-13-(13)-12--10-12p10-|
|-----------------------------|--8---8--(8)--8--(8)--8---8--8----|


                          ~~~
   H                  E   Q.
|------------------------------------|
|------------------------11----------|
|------------------------10----------|
|------------------------------------|
|------------------------------------|
|------------------------------------|
|
|  E S  S  +S  S  E  +E   S  S  E  E
|------------------------------------|
|------------------------------------|
|------------------------------------|
|-10---12-(12)---13-(13)-12p10-10-12-|
|--8-8--8--(8)-8--8--(8)-10-----8--8-|
|------------------------------------|


  Gtr III
   W                                  W
|----------------------------------|------------------------------|
|----------------------------------|------------------------------|
|----------------------------------|------------------------------|
|----------------------------------|------------------------------|
|----------------------------------|------------------------------|
|----------------------------------|------------------------------|
|
| Gtr II
|                      ~~~                                 ~~~
|  H               E   Q.             H                 E  Q.
|----------------------------------|------------------------------|
|---------------------11-----------|----------------------11------|
|---------------------10-----------|----------------------10------|
|----------------------------------|------------------------------|
|----------------------------------|------------------------------|
|----------------------------------|------------------------------|
|
| Gtr I
|  E.  S  +E   E  +E   E   E  S  S    E S  S  +S  S  E  E  E   Q
|----------------------------------|------------------------------|
|----------------------------------|------------------------------|
|----------------------------------|------------------------------|
|----------------------------------|-10---12-(12)---13-13-12--10--|
|-10--12-(12)-13-(13)-12--10-12p10-|--8-8--8--(8)-8--8--8--8---8--|
|--8---8--(8)--8--(8)--8---8--8----|------------------------------|


 Guitar Solo
  E  a     +Q    E  a      +E   S  a      +S   +S   S  a      +S   S
|---------------------------------------------------------------------|
|---11b13-(11)--11-11pb13-(11)-11-11pb13-(11)-(11)-11-11pb13-(11)-11--|
|---------------------------------------------------------------------|
|---------------------------------------------------------------------|
|---------------------------------------------------------------------|
|---------------------------------------------------------------------|
|
| W
|---------------------------------------------------------------------|
|---------------------------------------------------------------------|
|---------------------------------------------------------------------|
|---------------------------------------------------------------------|
|---------------------------------------------------------------------|
|---------------------------------------------------------------------|
|
| W
|---------------------------------------------------------------------|
|---------------------------------------------------------------------|
|---------------------------------------------------------------------|
|---------------------------------------------------------------------|
|---------------------------------------------------------------------|
|---------------------------------------------------------------------|


                                                        ~~~~~~~~~
                                                                       |---3---|
   a      +S   S  a      +S   S  a      +S   S  a      +E   +Q.    a  +S   +S  S
|--------------------------------------------------------------------------------|
|-11pb13-(11)-11-11pb13-(11)-11-11pb13-(11)-11-11b15==(11)-(11)r==11r(11)-(11)-8-|
|--------------------------------------------------------------------------------|
|--------------------------------------------------------------------------------|
|--------------------------------------------------------------------------------|
|--------------------------------------------------------------------------------|


                        |-3--|
   S  S S  S S  S S  S  S S  S S  S S  a     +E   S
|----------------------------------------------------|
|-11-11p8----8---------------------------------------|
|---------10---10p8----10p8----8-10-8-10b12-(10)-----|
|-------------------10------10-----------------------|
|------------------------------------------------10--|
|----------------------------------------------------|


 Interlude
  Gtr I
                                             ~~~~~
  S S S S S S S S E E Q    S S S S S S S S E E     Q
|------------------------|----------------------------|
|------------------------|----------------------------|
|------------------------|----------------------------|
|-------2---------2------|-------2---------2-------2--|
|-0-1-2-----0-1-2--------|-0-1-2-----0-1-2------------|
|-------------------0----|-------------------3b3.5----|


  S S S S S S S S E E Q    S S S S S S S S E Q.
|------------------------|-------------------------|
|------------------------|-------------------------|
|------------------------|-------------------2-----|
|-------2---------2------|-------2---------2-2-----|
|-0-1-2-----0-1-2--------|-0-1-2-----0-1-2---0-----|
|-------------------0----|-------------------------|


 Verse
  Wx4          S S E Q  H      W          S S E Q  H      W
|------------|---------------|----------|---------------|------|
|------------|---------------|----------|---------------|------|
|------------|---------------|----------|---------------|------|
|------------|---------------|----------|---------------|------|
|------------|-0-1-2---------|----------|-0-1-----------|------|
|------------|---------------|----------|---------------|------|


 Interlude
                                             ~~~~~
  S S S S S S S S E E Q    S S S S S S S S E E     Q
|------------------------|----------------------------|
|------------------------|----------------------------|
|------------------------|----------------------------|
|-------2---------2------|-------2---------2-------2--|
|-0-1-2-----0-1-2--------|-0-1-2-----0-1-2------------|
|-------------------0----|-------------------3b3.5----|


  S S S S S S S S E E Q    S S S S S S S S E Q.
|------------------------|-------------------------|
|------------------------|-------------------------|
|------------------------|-------------------2-----|
|-------2---------2------|-------2---------2-2-----|
|-0-1-2-----0-1-2--------|-0-1-2-----0-1-2---0-----|
|-------------------0----|-------------------------|


 Verse
  PM----------------------------------------------------------------------------
  E S  S  +S   S  S  S S  S  E  E  S  S   E E +S   S  S  S S  S  E     E  S  S
|---------------------------------------|--------------------------------------|
|---------------------------------------|--------------------------------------|
|---------------------------------------|--------------------------------------|
|------------------------10-------------|--------------------10----------------|
|-----10-(10)-10-12p10------10-13-12p10-|---------10-12p10------10----13-12p10-|
|-8-8------------------8----------------|-8-8-(8)----------8-------------------|
|
| Gtr II
| W                                       H                E     Q.
|---------------------------------------|-----------------------11b12----------|
|---------------------------------------|-----------------------10-------------|
|---------------------------------------|--------------------------------------|
|---------------------------------------|--------------------------------------|
|---------------------------------------|--------------------------------------|
|---------------------------------------|--------------------------------------|


 --------------------------------------------|
    E    S  S  +S   S  S  S S  S  E  S  S  S  S
|-------------------------------------------------|
|-------------------------------------------------|
|-------------------------------------------------|
|-----------------------------10------------------|
|----------10-(10)-10-12p10------10-13p10-12p10---|
|---8----8------------------8---------------------|
|
|  +S  S E      Q           H
|-(11)-8------------------------------------------|
|-(10)-8------------------------------------------|
|-------------------------------------------------|
|-------------------------------------------------|
|-------------------------------------------------|
|-------------------------------------------------|


  PM---------------------------------------------
  S S S  S  +S   S  S  S S  S  E     E     E
|-----------------------------------------------|
|-----------------------------------------------|
|-----------------------------------------------|
|--------------------------10-------------------|
|-------10-(10)-10-12p10------10----13----12----|
|-8-8-8------------------8----------------------|
|
|                           PM------|
| H                      S  S  S  S  S  S  S  S
|-----------------------------------------------|
|-----------------------------------------------|
|-----------------------------10-----8----------|
|--------------------------10----10----10p=8----|
|--------------------------------------------10-|
|-----------------------------------------------|


 ----------------------------------------------------------------------------|
  E S  S  +S   S  S  S S  S  E  E  S  S   E S  S  +S   S  S  S S  S  E  E  S  S
|---------------------------------------|---------------------------------------|
|---------------------------------------|---------------------------------------|
|---------------------------------------|---------------------------------------|
|------------------------10-------------|------------------------10-------------|
|-----10-(10)-10-12p10------10-13-12p10-|-----10-(10)-10-12p10------10-13-12p10-|
|-8-8------------------8----------------|-8-8------------------8----------------|
|
| e E      Q           H                  W
|---------------------------------------|---------------------------------------|
|---------------------------------------|---------------------------------------|
|---------------------------------------|---------------------------------------|
|---------------------------------------|---------------------------------------|
|---------------------------------------|---------------------------------------|
|-8-------------------------------------|---------------------------------------|


  PM----------------------------------------------------------------------|
  E S  S  +S   S  S  S S  S  E  S  S  S  S   E S  S  +S   S  S  S S  S  E Q
|------------------------------------------|----------------------------------|
|------------------------------------------|----------------------------------|
|------------------------------------------|------------------------------2---|
|------------------------10----------------|------------------------10----2---|
|-----10-(10)-10-12p10------10-13p12-12p10-|-----10-(10)-10-12p10------10-0---|
|-8-8------------------8-------------------|-8-8------------------8-----------|


 Chorus
  Gtr II
                       ~~~                                ~~~
   H               E   Q.            H                E   Q.
|---------------------------------|-----------------------------------|
|---------------------11----------|----------------------11-----------|
|---------------------10----------|----------------------10-----------|
|---------------------------------|-----------------------------------|
|---------------------------------|-----------------------------------|
|---------------------------------|-----------------------------------|
|
| Gtr I
|  E.  S  +E   E  +E   S  S  E  E    E S  S  +E   E  +E   E   E  S  S
|---------------------------------|-----------------------------------|
|---------------------------------|-----------------------------------|
|---------------------------------|-----------------------------------|
|---------------------------------|-10---12-(12)-13-(13)-12--10-12p10-|
|-10--12-(12)-13-(13)-12p10-10-12-|--8-8--8--(8)--8--(8)--8---8--8----|
|--8---8--(8)--8--(8)--8-----8--8-|-----------------------------------|


                       ~~~
   H               E   Q.
|----------------------------------|
|---------------------11-----------|
|---------------------10-----------|
|----------------------------------|
|----------------------------------|
|----------------------------------|
|
|  E.  S  +E   E  +E   E   E  S  S
|----------------------------------|
|----------------------------------|
|----------------------------------|
|----------------------------------|
|-10--12-(12)-13-(13)-12--10-12p10-|
|--8---8--(8)--8--(8)--8---8--8----|


                       ~~~                           ~~~
   H               E   Q.        H               E   Q.
|-----------------------------|----------------------------------|
|---------------------11------|---------------------11-----------|
|---------------------10------|---------------------10-----------|
|-----------------------------|----------------------------------|
|-----------------------------|----------------------------------|
|-----------------------------|----------------------------------|
|
|  E.  S  +E   E  +E   E   Q     E.  S  +E   E  +E   E   E  S  S
|-----------------------------|----------------------------------|
|-----------------------------|----------------------------------|
|-----------------------------|----------------------------------|
|-10--12-(12)-13-(13)-12--10--|----------------------------------|
|--8---8--(8)--8--(8)--8---8--|-10--12-(12)-13-(13)-12--10-12p10-|
|-----------------------------|--8---8--(8)--8--(8)--8---8--8----|


                          ~~~
   H                  E   Q.
|------------------------------------|
|------------------------11----------|
|------------------------10----------|
|------------------------------------|
|------------------------------------|
|------------------------------------|
|
|  E S  S  +S  S  E  +E   S  S  E  E
|------------------------------------|
|------------------------------------|
|------------------------------------|
|-10---12-(12)---13-(13)-12p10-10-12-|
|--8-8--8--(8)-8--8--(8)-10-----8--8-|
|------------------------------------|


                       ~~~                                 ~~~
   H               E   Q.             H                 E  Q.
|----------------------------------|------------------------------|
|---------------------11-----------|----------------------11------|
|---------------------10-----------|----------------------10------|
|----------------------------------|------------------------------|
|----------------------------------|------------------------------|
|----------------------------------|------------------------------|
|
|  E.  S  +E   E  +E   E   E  S  S    E S  S  +S  S  E  E  E   Q
|----------------------------------|------------------------------|
|----------------------------------|------------------------------|
|----------------------------------|------------------------------|
|----------------------------------|-10---12-(12)---13-13-12--10--|
|-10--12-(12)-13-(13)-12--10-12p10-|--8-8--8--(8)-8--8--8--8---8--|
|--8---8--(8)--8--(8)--8---8--8----|------------------------------|


 Interlude
  Bb
  Gtr I
   S   S       S    S       S    S       S    S       S    S       S    S       S    S       S  S
   |   |       |    |       |    |       |    |       |    |       |    |       |    |       |  |
   o   /       /    /       /    /       /    /       /    /       /    /       /    /       /  /

  Gtr III
       \0.5/        \0.5/        \0.5/        \0.5/        \0.5/        \0.5/        \0.5/
   S  +S      +S   +S      +S   +S      +S   +S      +S   +S      +S   +S      +S   +S      +S  S
|-------------------------------------------------------------------------------------------------|
|-11-(11)----(11)-(11)----(11)-(11)----(11)-(11)----(11)-(11)----(11)-(11)----(11)-(11)----(11)-8-|
|-------------------------------------------------------------------------------------------------|
|-------------------------------------------------------------------------------------------------|
|-------------------------------------------------------------------------------------------------|
|-------------------------------------------------------------------------------------------------|


   S   S    S   S    S   S    S   S  S  S      S   S      S   S      S  S
   |   |    |   |    |   |    |   |  |  |      |   |      |   |      |  |
   /   /    /   /    /   /    /   /  /  /      /   /      /   /      /  /

       \1/      \1/      \1/      \1    \0.5/      \0.5/      \0.5/
  +S  +S   +S  +S   +S  +S   +S  +S  S +S     +S  +S     +S  +S     +E
|-------------------------------------------------------------------------|
|-(8)-(8)--(8)-(8)--(8)-(8)--(8)-(8)--------------------------------------|
|------------------------------------9-(9)----(9)-(9)----(9)-(9)----(9)---|
|-------------------------------------------------------------------------|
|-------------------------------------------------------------------------|
|-------------------------------------------------------------------------|


        Bb
          S  S S  S S         S  S S         S  S         S  S          S    S  S  S
          |  | |  | |         |  | |         |  |         |  |          |    |  |  |
          o  / /  / /         /  / /         /  /         /  /          /    /  /  /

   a     +S  S S  S S  a     +S  S S  a     +S  S  a     +S  S  a      +S   +S  S  S
|------------8-8-11-8------------8--------------8------------8-----------------------|
|------------8-8-11-8------------8--------------8------------8-----------------------|
|-10b12-(10)----------10b12-(10)---8-10b12-(10)---10b12-(10)---10b12==(10)r(10)-8----|
|---------------------------------------------------------------------------------10-|
|------------------------------------------------------------------------------------|
|------------------------------------------------------------------------------------|


  S S S  S      S   S         S   S         S  S         S   S S S S S
  | | |  |      |   |         |   |         |  |         |   | | | | |
  / / /  /      /   /         /   /         /  /         /   / / / / /

  S S S  S     +S   S  a     +S   S  a     +S  S  a     +E     Q
|------------------11------------11------------8-----------------------|
|------------------11--------------------------------------------------|
|-8---8-10b12-(10)----10b12-(10)----10b12-(10)---10b12-(10)\---2-------|
|---x----------------------------------------------------------2-------|
|---x----------------------------------------------------------0-------|
|----------------------------------------------------------------------|


 Out-Guitar Solo
                        E5                                       A
  H               Q      Q     H               Q                  Q
                         |                                        |
                         /                                        /

  Gtr III
                                                            ~~~~~~~~~
  H               Q   a  Q     H               E a    +S   +S    +Q
|------------------------0---|----------------------------------------|
|------------------------0---|----------------------------------------|
|---------------------2-(2)--|-------------------4b6==(4)r=(4)b7-(4)--|
|----------------------------|----------------------------------------|
|----------------------------|----------------------------------------|
|----------------------------|----------------------------------------|
|
| Gtr I
| S S S S S S S S E E    Q     S S S S S S S S E       E          Q
|------------------------0---|----------------------------------------|
|------------------------0---|----------------------------------------|
|------------------------x---|------------------------------------2---|
|-------2---------2------2---|-------2---------2------------------2---|
|-0-1-2-----0-1-2--------2---|-0-1-2-----0-1-2--------------------0---|
|-------------------0----0---|-------------------------3b4------------|


                        E5
  H               Q      Q
                         |
                         /

  H               Q   a  Q
|------------------------0-----|
|------------------------0-----|
|---------------------2-(2)----|
|------------------------------|
|------------------------------|
|------------------------------|
|
| S S S S S S S S E E    Q
|------------------------0-----|
|------------------------0-----|
|------------------------x-----|
|-------2---------2------2-----|
|-0-1-2-----0-1-2--------2-----|
|-------------------0----0-----|


                                    A                                E5
  H               Q                  Q     H               Q           Q
                                     |                                 |
                                     /                                 /

                               ~~~~~~~~~
  H               E a    +S   +S    +Q     H               Q    a      Q
|----------------------------------------|---------------------------------|
|----------------------------------------|----------------------------12---|
|-------------------4b6==(4)r=(4)b7-(4)--|---------------------14b16-(14)--|
|----------------------------------------|---------------------------------|
|----------------------------------------|---------------------------------|
|----------------------------------------|---------------------------------|
|
| S S S S S S S S E       E          Q     S S S S S S S S E E         Q
|----------------------------------------|-----------------------------0---|
|----------------------------------------|-----------------------------0---|
|------------------------------------2---|-----------------------------x---|
|-------2---------2------------------2---|-------2---------2-----------2---|
|-0-1-2-----0-1-2--------------------0---|-0-1-2-----0-1-2-------------2---|
|-------------------------3b4------------|-------------------0---------0---|


                                         A
  H               Q                        Q
                                           |
                                           /

                                           ~~~~
  H               E  a      +S    +S      +Q
|-----------------------------------------------|
|-------------------12b14==(12)r=(12)b15-(12)---|
|-----------------------------------------------|
|-----------------------------------------------|
|-----------------------------------------------|
|-----------------------------------------------|
|
| S S S S S S S S E          E             Q
|-----------------------------------------------|
|-----------------------------------------------|
|------------------------------------------2----|
|-------2---------2------------------------2----|
|-0-1-2-----0-1-2--------------------------0----|
|----------------------------3b4----------------|


                      E5                                            A
  H               Q    Q     H               Q                        Q
                       |                                              |
                       /                                              /

                                                                      ~~~~
  H               Q    Q     H               E  a      +E     a      +Q
|--------------------------|----------------------------------------------|
|---------------------12\--|-------------------12b14==(12)r=(12)b15-(12)--|
|--------------------------|----------------------------------------------|
|--------------------------|----------------------------------------------|
|--------------------------|----------------------------------------------|
|--------------------------|----------------------------------------------|
|
| S S S S S S S S E E  Q     S S S S S S S S E          E             Q
|----------------------0---|----------------------------------------------|
|----------------------0---|----------------------------------------------|
|----------------------x---|------------------------------------------2---|
|-------2---------2----2---|-------2---------2------------------------2---|
|-0-1-2-----0-1-2------2---|-0-1-2-----0-1-2--------------------------0---|
|-------------------0--0---|----------------------------3b4---------------|


                                            E5
  H                                    Q    Q
                                            |
                                            /

                                  ~~~~~~~~
       |---3---|                               |--3--|
  E    S  S    S  S  S  S  a     +S   +Q.      S  S  S
|-----12------------12------------------------12---------|
|--------15p==12----------15b17-(15)-(15)--------15p12---|
|----------------14----12--------------------------------|
|--------------------------------------------------------|
|-x------------------------------------------------------|
|-x------------------------------------------------------|
|
| S S  S    S     S  S  S         S    E  E Q
|-------------------------------------------0------------|
|-------------------------------------------0------------|
|-------------------------------------------x------------|
|-----------2--------------------------2----2------------|
|-0-1--2-------------0--1---------2---------2------------|
|-----------------------------------------0-0------------|


                                        A
   H                       Q             Q
                                         |
                                         /

   S  S  S  S  S  S  S  S  S  S  S    S  S  S  S  a      +S
|----------15p12----12----15p12------15p12----15-15b17==(15)-|
|----12------------------------------------------------------|
|-14----12-------14----12-------14---------12----------------|
|------------------------------------------------------------|
|------------------------------------------------------------|
|------------------------------------------------------------|
|
|  S  S  S  S  S  S  S  S  E     E       Q
|------------------------------------------------------------|
|------------------------------------------------------------|
|----------------------------------------2-------------------|
|-----------2--------------2-------------2-------------------|
|--0--1--2--------0--1--2----------------0-------------------|
|--------------------------------3b4-------------------------|


                                                          E5
    H                                       Q              Q
                                                           |
                                                           /

                    |---------6----------|        |--3--|
   +Q          a   +S   +S     S  S  S   S  S  S  S  S  S  S  S  S  T  T
|-(15)r======(15)-(15)r(15)p==12-15p12-----12----17p12----12-------------|
|----------------------------------------x----12-------12----12-15p12----|
|---------------------------------------------------------------------15-|
|------------------------------------------------------------------------|
|------------------------------------------------------------------------|
|------------------------------------------------------------------------|
|
|   S  S S S        S       S     S    S    E     E        Q
|----------------------------------------------------------0-------------|
|----------------------------------------------------------0-------------|
|----------------------------------------------------------x-------------|
|----------2--------------------------------2--------------2-------------|
|---0--1-2------------------0-----1----2-------------------2-------------|
|-------------------------------------------------0--------0-------------|


                                               G5/F#                A
   H                                 E         Q                    E
                                               |                    |
                                               /                    /

   |---3---|              |---3---|
   S  S    S  S  S  S  S  S  S    S  S  E.          +S   a      +E     +S
|------------------------------------------------------------------------------|
|-15p12------12----------------------------------------------------------------|
|---------15----14-12----14p12------12-14b14.5-----(14)-12b14==(12)r==(12)b14==|
|---------------------14---------14--------------------------------------------|
|------------------------------------------------------------------------------|
|------------------------------------------------------------------------------|
|
|  S    S     S  S  S  S  S    S     E         E     Q
|------------------------------------------------------------------------------|
|------------------------------------------------------------------------------|
|----------------------------------------------------2-------------------------|
|----------------2-------------------2---------------2-------------------------|
|--0----1-----2--------0--1----2---------------------0-------------------------|
|----------------------------------------------3b4-----------------------------|


                                                  E5
    H                                  Q            Q
                                                    |
                                                    /

                                                    \1.5________
   +S   +S       +S   +S   S  S  S  S  S  S  S  S  +E.     +S
|--------------------------------------------------------------|
|--------------------------------------------------------------|
|-(12)r(12)b14==(12)r(12)--------------------------------------|
|-------------------------14p12-14p12-14p12-14-12-(12)----(12)-|
|--------------------------------------------------------------|
|--------------------------------------------------------------|
|
|   S    S        S    S   S  S  S  S  E     E      Q
|---------------------------------------------------0----------|
|---------------------------------------------------0----------|
|---------------------------------------------------x----------|
|----------------------2---------------2------------2----------|
|---0----1--------2-----------0--1--2---------------2----------|
|--------------------------------------------0------0----------|


                              A                                                   E5
     H                 Q      Q             H                           Q           Q
                              |                                                     |
                              /                                                     /

  /                                                 \1/     \1/         \1/   \1/   \1/
  a +H                +Q.       +S   S     +E      +E      +Q          +E    +E    +E   E
|---------------------------------------|-------------------------------------------------|
|---------------------------------------|-------------------------------------------------|
|-0-(0)---------------(0)-------(0)-<7>-|-(<7>)---(<7>)---(<7>)-------(<7>)-(<7>)-(<7>)-2-|
|-0-(0)---------------(0)-------(0)-----|-------------------------------------------------|
|-0-(0)---------------(0)-------(0)-----|-------------------------------------------------|
|---------------------------------------|-------------------------------------------------|
|
|    S  S S S S S S S  E  E   Q             S   S   S   S   S   S S S   E     E     Q
|---------------------------------------|-------------------------------------------0-----|
|---------------------------------------|-------------------------------------------0-----|
|-----------------------------2---------|-------------------------------------------x-----|
|-----------2----------2------2---------|---------------2---------------2-----------2-----|
|----0--1-2-----0-1-2---------0---------|---0---1---2-----------0-1-2---------------2-----|
|-------------------------3b4-----------|-------------------------------------0-----0-----|


                              A
   H                     E     E       Q
                               |       |
                               /       /

            |--3--|
  +E    S S S S   S S S  S  S  S   S   S  S   S  S
|--------------------------12------0-----12-----12--|
|---------------------------------------------------|
|-(2)---0---2p0-----0-2s12----/9-----/12----/12-----|
|---------2-------2---------------------------------|
|---------------------------------------------------|
|---------------------------------------------------|
|
|  S  S S S S   S   S S  E     E       Q
|---------------------------------------------------|
|---------------------------------------------------|
|--------------------------------------2------------|
|---------2--------------2-------------2------------|
|--0--1-2-------0---1-2----------------0------------|
|------------------------------3b4------------------|


                                                       E5
  H                                   Q                 Q
                                                        |
                                                        /

  Gtr III
                 ~~~~~~~~~
                                                        |--3--|
  S E    a      +S   +Q          a   +S   +T   T  S  S  E  E  E
|---0---17b19==(17)-(17)r======(17)-(17)r(17)p15----17-16-17-16-|
|---0--------------------------------------------17-------------|
|---------------------------------------------------------------|
|---------------------------------------------------------------|
|---------------------------------------------------------------|
|---------------------------------------------------------------|
|
| Gtr I
| S S S          S    S  S S S        E           E     Q
|-------------------------------------------------------0-------|
|-------------------------------------------------------0-------|
|-------------------------------------------------------x-------|
|----------------2--------------------2-----------------2-------|
|-0-1-2------------------0-1-2--------------------------2-------|
|-------------------------------------------------0-----0-------|


                                                            A
   H                                                  E      E       Q
                                                             |       |
                                                             /       /

                                                                        ~~
                            |---3---|
   S  a      +E     +T   T  S  S    S  S  a     +S   +S   S  S    S  e  E
|-17-17b19==(17)r==(17)p15----15------15-19b21-(19)-(19)-19-18---17--------|
|--------------------------17------15-------------------------------20-17--|
|--------------------------------------------------------------------------|
|--------------------------------------------------------------------------|
|--------------------------------------------------------------------------|
|--------------------------------------------------------------------------|
|
|  S          S  S   S      S    S     S         S    E      E       Q
|--------------------------------------------------------------------------|
|--------------------------------------------------------------------------|
|--------------------------------------------------------------------2-----|
|--------------------2--------------------------------2--------------2-----|
|--0----------1--2---------------0-----1---------2-------------------0-----|
|------------------------------------------------------------3b4-----------|


                                         E5
    H                         Q            Q
                                           |
                                           /

    ~~~~
   +E      S   S  S  S  S  S  S  S  S  S  +S   S  S  S
|--------[16]----16----14----14----14------------12----|
|-(17)--------17----17----15----15----15-(15)-12----12-|
|------------------------------------------------------|
|------------------------------------------------------|
|------------------------------------------------------|
|------------------------------------------------------|
|
|   S  S   S   S  S  S  S  S  E     E      Q
|------------------------------------------0-----------|
|------------------------------------------0-----------|
|------------------------------------------x-----------|
|--------------2--------------2------------2-----------|
|---0--1---2---------0--1--2---------------2-----------|
|-----------------------------------0------0-----------|


                                     A
   H                            E     E        Q
                                      |        |
                                      /        /

         |---3---|
   S  S  S  S    S  S  S  S  S  S  S  S    S  +S   S  E
|-12-----------------------------------------------------|
|----12-15p14p==12----14-12----12------------------------|
|------------------14-------12----12-12---12-(12)-11-12--|
|--------------------------------------------------------|
|--------------------------------------------------------|
|--------------------------------------------------------|
|
|  S  S  S    S     S  S  S  S  E     E        Q
|--------------------------------------------------------|
|--------------------------------------------------------|
|----------------------------------------------2---------|
|-------------2-----------------2--------------2---------|
|--0--1--2-------------0--1--2-----------------0---------|
|-------------------------------------3b4----------------|


                               E5
  H                     Q       Q
                                |
                                /

  S  e    S  S  S  S  S S S  E  E  S  S
|---------------------------------------|
|---------------------------------------|
|-9-12------12-------12-----12----------|
|--------12----11-11------9-------------|
|------------------------------12-12-10-|
|---------------------------------------|
|
| S  S S  S  S  S  S  S E    E  Q
|-------------------------------0-------|
|-------------------------------0-------|
|-------------------------------x-------|
|---------2-------------2-------2-------|
|-0--1-2--------0--1--2---------2-------|
|----------------------------0--0-------|


                             A
   H                    E     E    Q
                              |    |
                              /    /

   E    S  S S  E    S  S  S  e    E  E
|----------------------------------------|
|----------------------------------------|
|----------------------------------------|
|----------------------------------------|
|-12---12-10---12---12p10----12---10-----|
|-------------------------12---------12--|
|
|  S S  S  S S  S S  S  E     E    Q
|----------------------------------------|
|----------------------------------------|
|----------------------------------2-----|
|----------2------------2----------2-----|
|--0-1--2-------0-1--2-------------0-----|
|-----------------------------3b4--------|


                                     E5
   H                      Q           Q
                                      |
                                      /

   E    S  S  S  S  S  S  S  S  S  S  S  S  S  S
|------------------------------------------------|
|------------------------------------------------|
|------------------------------------------------|
|------------------------------------------------|
|-12---12p10----12p10----12p10----12p10----10-12-|
|------------12-------12-------12-------12-------|
|
|  S S  S  S  S  S  S  S  E     E     Q
|-------------------------------------0----------|
|-------------------------------------0----------|
|-------------------------------------x----------|
|----------2--------------2-----------2----------|
|--0-1--2--------0--1--2--------------2----------|
|-------------------------------0-----0----------|


                                     A
   H                            E    E    Q
                                     |    |
                                     /    /

   |---3---|
   S  S    S  S  S  S  S  S  S  S  S E    E  E
|-----------------------------------------------|
|-----------------------------------------------|
|-----------------------------------------------|
|-------------------------------------------17--|
|-12p10------10----10-------10------------------|
|---------12----10----10h12----12p10s9s==15-----|
|
|  S    S     S  S  S  S  S  S  E    E    Q
|-----------------------------------------------|
|-----------------------------------------------|
|-----------------------------------------2-----|
|----------------2--------------2---------2-----|
|--0----1-----2--------0--1--2------------0-----|
|------------------------------------3b4--------|


                              E5
    H               Q           Q
                                |
                                /

    E E  a     +Q   E E  a     +E   +E
|----------------------------------------|
|-------15b17-(15)------15b17-(15)-(15)\-|
|----------------------------------------|
|----------------------------------------|
|----------------------------------------|
|-/12-0-------------0-0------------------|


                              A
  H                   E         E  Q
                                |  |
                                /  /

                                ~~~~
  Q   a     +E   +E   E  a     +Q     +E
|------------------------------------------|
|----15b17-(15)-(15)\---17b20-(17)---(17)\-|
|------------------------------------------|
|------------------------------------------|
|------------------------------------------|
|-0-------------------0--------------------|


  Gtr III
                                                                                        ~~~~
  Q   a      +Q   Q   a      +Q     Q   a     +E   a     +E   +E   a      +S   +S      +Q
|---------------------------------|---------------------------------------------------------|
|----15pb17-(15)-----15pb17-(15)--|----15b17-(15)-15b17-(15)-(15)-17b19==(17)r(17)b20-(17)--|
|---------------------------------|---------------------------------------------------------|
|---------------------------------|---------------------------------------------------------|
|---------------------------------|---------------------------------------------------------|
|-0---------------0---------------|-0-------------------------------------------------------|


  Q   E  E     +E   E  E     +E     E  E     +E   E  E     +E   Q
|----17------------17------------|-17------------17------------17\--|
|----17-20b22-(20)-17-20b22-(20)-|-17-20b22-(20)-17-20b22-(20)-17\--|
|--------------------------------|----------------------------------|
|-0------------------------------|----------------------------------|
|-0------------------------------|----------------------------------|
|-0------------------------------|----------------------------------|


                                             |--3--|
    S  S  S  S   S  S  S  S   S  S  S  S  E  S  S  S
|-/12-12-12-12-/12-12-12--------12----12-------------|
|-/12-12-12-12-/12-12-12-12-/12----12----12----------|
|-/12-12-12-12--------------/12----12----12-14p12----|
|-------------------------------------------14p12-14-|
|----------------------------------------------------|
|----------------------------------------------------|


   |3-|  |-3--|
   S  E  S  S S  S  S  S  S  +E   E Q
|--------------------------------------|
|--------------------------------------|
|-14p12-14p12-x-14p12----12-(12)\---2--|
|---------------------12------------2--|
|---------------------------------0-0--|
|--------------------------------------|


  Gtr I
  S S S S +S  S S S E E Q
|--------------------------|
|--------------------------|
|--------------------------|
|-------2-(2)-------2---4--|
|-0-1-2-------0-1-2-----2--|
|---------------------0----|


  S S S S +S  S S S E E Q    S S S S +S  S S S E E Q
|--------------------------|-----------------------0---|
|--------------------------|-----------------------0---|
|-----------------------2--|-----------------------x---|
|-------2-(2)-------2---2--|-------2-(2)-------2---2---|
|-0-1-2-------0-1-2-----0--|-0-1-2-------0-1-2-----2---|
|---------------------0----|---------------------0-0---|


  Gtr II
  W
  S S S S +S  S S S E S   +S  +E  E
|-----------------------------------|
|-----------------------------------|
|---------------------------------2-|
|-------2-(2)-------2-------------2-|
|-0-1-2-------0-1-2---------------0-|
|---------------------3b5-(3)-(3)---|


                        E                        A5
  H                 Q   Q    H                 E E E E
                        |                        | | |
                        o                        / / /

  S S S S +S  S S S E E Q    S S S S +S  S S S E E E E
|--------------------------|---------------------------|
|--------------------------|---------------------------|
|--------------------------|---------------------2-2-2-|
|-------2-(2)-------2---2--|-------2-(2)-------2-2-2-2-|
|-0-1-2-------0-1-2--------|-0-1-2-------0-1-2---0-0-0-|
|---------------------0----|---------------------------|


                        E5/B
  H                 Q   Q
                        |
                        /

  S S S S +S  S S S E E Q
|--------------------------|
|--------------------------|
|--------------------------|
|-------2-(2)-------2---2--|
|-0-1-2-------0-1-2-----2--|
|---------------------0----|


                          A5                             E5/B
  H                 E      E  Q    H                 Q   Q
                           |  |                          |
                           /  /                          /

  S S S S +S  S S S E a   +E  Q    S S S S +S  S S S E E Q
|--------------------------------|--------------------------|
|--------------------------------|--------------------------|
|-----------------------------2--|--------------------------|
|-------2-(2)-------2---------2--|-------2-(2)-------2---2--|
|-0-1-2-------0-1-2-----------0--|-0-1-2-------0-1-2-----2--|
|---------------------3b5-(3)----|---------------------0-0--|


                          A5
  H                 E      E  E E
                           |  | |
                           /  / /

  Gtr III
  W
|---------------------------------|
|---------------------------------|
|---------------------------------|
|---------------------------------|
|---------------------------------|
|---------------------------------|
|
| Gtr I
| S S S S +S  S S S E a   +E  E E
|---------------------------------|
|---------------------------------|
|-----------------------------2-2-|
|-------2-(2)-------2---------2-2-|
|-0-1-2-------0-1-2-----------0-0-|
|---------------------3b5-(3)-----|


                                       E5
   H                        Q           Q
                                        |
                                        /

   S  S  S  S  S   S  S  S  S  S  S  S  S  S  E
|-----------------------------------------------|
|-14s15-15-15-14s=15-15----14s15-15-14s15-15-15-|
|-15s16-16-16-15s=16-16-15-15s16-16-15s16-16-16-|
|-----------------------------------------------|
|-----------------------------------------------|
|-----------------------------------------------|
|
|  S  S  S  S +S   S  S  S  E     E     Q
|-----------------------------------------------|
|-----------------------------------------------|
|-----------------------------------------------|
|-----------2-(2)-----------2-----------2-------|
|--0--1--2---------0--1--2--------------2-------|
|---------------------------------0-----0-------|


                              A
   H                        E  E  Q
                               |  |
                               /  /

   S  S  S  S  S   S  S  S  E  E  E  S  S
|-----------------------------------------|
|-14s15-15-15-15--15-15-14-14-14-14-14-14-|
|-15s16-16-16-16--16-16-14-14-14-14-14-14-|
|-----------------------------------------|
|-----------------------------------------|
|-----------------------------------------|
|
|  S  S  S  S +S   S  S  S  E  E  E  E
|-----------------------------------------|
|-----------------------------------------|
|------------------------------2--2--2----|
|-----------2-(2)-----------2--2--2--2----|
|--0--1--2---------0--1--2-----0--0--0----|
|-----------------------------------------|


                                      E5
   H                       Q           Q
                                       |
                                       /

   S  S  S  S  S  S  S  S  S  S  S  S  S  S  E
|----------------------------------------------|
|-15-15-15-15-14s15-15-15-14s15-15-15-14s15-15-|
|-16-16-16-16-15s16-16-16-15s16-16-16-15s16-16-|
|----------------------------------------------|
|----------------------------------------------|
|----------------------------------------------|
|
|  W
|----------------------------------------------|
|----------------------------------------------|
|----------------------------------------------|
|----------------------------------------------|
|----------------------------------------------|
|----------------------------------------------|


                               A
   H                      E     E      Q
                                |      |
                                /      /

   S  S  S S  S  S  S  S  S  S  S  S  +S   S  S  S
|---------------------------------17-(17)-17-------|
|-14s15-15---14s15-15-15-14-14-14-14-(14)-14-14-14-|
|-15s16-16-x-15s16-16-16-14-14-14-14-(14)-14-14-14-|
|--------------------------------------------------|
|--------------------------------------------------|
|--------------------------------------------------|


                                     E5
   H                      Q           Q
                                      |
  
1 comment total.
+2 reply
blaqkxhavok wrote on August 19 2008, 03:33 pm

Very well done tab.

I want to post or [tab]
guest
You may want to rate the tab now too:
select rating
Please do not post tabs as comments. Select "correction" instead!