Oops, an error
Loading. Please wait.

Dmc Acoustic Tab

ver1
ver1

Whole song

Interactive

More versions @911Tabs.com
5,534 views 9 this week
no commentswrite comment
1 2 3 4 5
please rate
Autoscroll
+/-
esc
set tempo
stop
Contributor
Difficulty
intermediate
Hey! There's an official Ultimate Guitar app which is ideal
for learning songs when you're away from computer. Get the app
WARNING: You are trying to view
                                    content from Ultimate-Guitar.com
                                    in an unauthorized application,
                                    which is prohibited.

                                    Please use an official Ultimate
                                    Guitar Tabs application for iPhone,
                                    iPad or Android to access legitimate
                                    chords, guitar, bass, and drum tabs
                                    from Ultimate-Guitar.com database.

                                    Type "ultimate guitar tabs" in Apple
                                    App Store's or Android Market's
                                    search to find the application.
Rungran - "d.m.c. (Gut guitar version)" (Arrangement for 1 guitar)
  From "Devil May Cry" anime OST

Exported this from my original GuitarPro tab (there's a track with 1 guitar 
arrangement for the song)

//===========================================================================


                    C7                                     B7/E              
             v      ^                                >     >           >     
     Q.      E      H        E  E     E  E  E  E  E  E     H           Q     
E||--------------|--0--------------|--------------0--3--|--2~--------7g8----|
B||---------(1)--|--1-----------1--|--2-----1--2--------|--0----------------|
G||---------(3)--|--3--------3-----|--------------------|--2----------------|
D||----------2---|--2--------------|--------------------|--1----------------|
A||----------3---|--3--------------|--------------------|--2----------------|
E||---------(0)--|--0--------------|--------------------|--0----------------|


          >                   ^     >   >   ^   ^     
                         |--3-|     |---3---|         
  Q       Q     Q        E    Q     E   E   E   Q     
--7----9g12----11----|--13S--15----15--15--15--15----|
---------------------|-------------------------------|
---------------------|-------------------------------|
---------------------|-------------------------------|
---------------------|-------------------------------|
---------------------|-------------------------------|


                                 B7/E                                           
   >                   >                          v                             
   E    E   E     E    E   E     H.               H.              H.            
--11h--12---------------------|--2~------------|--x------------|---------------|
-----------11h--(12)--10------|--0-------------|--x------------|---------------|
--------------------------12--|--2-------------|--8------------|---------------|
------------------------------|--1-------------|--7------------|---------------|
------------------------------|--2-------------|--6------------|--L------------|
------------------------------|--0-------------|--7------------|--L------------|


  |----3----|                            |---3--|     |--3-|                    
  Q    Q    Q    E   E      E  E   E  E  E  E   E     S  S Q    E   E     Q     
-------------------------|-------------------------|-------8----L------8g11----|
-------------------------|-------------------------|----10---------10----------|
-------------------------|------------8------------|--8------------------------|
-----------------7-------|--7--9--10-----7--9--10--|---------------------------|
------------6-------(9)--|-------------------------|---------------------------|
--7----8-----------------|-------------------------|---------------------------|


                                |-----3----|    |---3---|   |---3---|   
   E      Q     E   E    E      E    E     E    E   E   E   E   E   E   
------11g14--------14s--17--|---L--(17)--(17)--17--17--17--17--17--17--|
--10-----------10-----------|------------------------------------------|
----------------------------|------------------------------------------|
----------------------------|------------------------------------------|
----------------------------|------------------------------------------|
----------------------------|------------------------------------------|


                         hit guitar body                           
                                        ^                          
   H.              Q     Q              Q       E  E  E  E  E  E   
--17------------|----------------------------|--------------------|
----------------|----------------------------|--------------------|
----------------|----------------------------|--------------------|
----------------|----------------------------|--------------------|
----------------|----------------------------|--2--3--2--0--------|
----------------|-------(x)-------------x----|--------------3--2--|


                    ^                                             
    H.              H.              H.              H.            
-----------------|--0------------|--L------------|--L------------|
--7g8------------|--7------------|--5------------|--8------------|
-----------------|--0------------|--L------------|--L------------|
--7g9------------|--7------------|--5------------|--9------------|
-----------------|--0------------|---------------|---------------|
----0------------|--L------------|--L------------|--L------------|


                                                     hit guitar body            
  ^        ^                         ^               >                          
  H        Q       Q    Q    Q       H.              Q               Q    Q     
----------------|-----------------|---------------|------------------7----9----|
--7--------7----|--L---------5----|--7------------|----------------------------|
-----------7----|--L--------------|--7------------|------------------7----9----|
--7--------7----|--L---------5----|--7------------|----------------------------|
--0--------5----|--L--------------|---------------|----------------------------|
----------------|-----------------|---------------|--x-------------------------|


                             D                                
        >      >             ^                                
        |------5------|                |--------5--------|    
  Q     E  E   E  E   E      E    E    E    E    E   E   E    
-------10-----10-----10--|-------(9)-------(9)-------9-------|
-----------7------7------|--(7)-------(7)-------(7)-----(7)--|
-------------------------|---7---------------------------L---|
-------------------------|---7---------------------------L---|
-------------------------|---9---------------------------L---|
--7----------------------|-------------------------------L---|


  Bm                                                                       
  ^                                                                  ^     
  |-------5-------|                                                        
  E   E   E   E   E   E     E      E   E  E   E   E   E     H        Q     
--7-------7-------7-------(10)--|-----10-----10----------|--9--------9----|
--7--(7)-----(7)-----(7)--------|--7------7------(7)--L--|----------------|
--7-----------------------------|---------------------L--|-----------6----|
--------------------------------|------------------------|-----------7----|
--------------------------------|------------------------|--0--------0----|
--------------------------------|------------------------|----------------|


                         A                                                   
                         ^       ^     v     ^    v       ^       ^  >   >   
  Q    Q     E   E       Q       E     E     E    E       Q.      E  E   E   
--L---------(7)--8--|----9------(9)---(9)---(9)--(9)--|---------------------|
--------------------|--(10)----(10)--(10)--(10)--10---|--10------10---------|
--L-----------------|---(9)-----(9)---(9)----9----9---|---9-------9--0h--2--|
--L-----------------|--(11)----(11)--(11)---11---11---|--11------11---------|
--L-----------------|---(0)-----(0)---(0)----0----0---|---0-------0---------|
--------------------|---------------------------------|---------------------|


  Em                                                     
  ^     ^    v    ^    v      ^     ^    v    ^   ^      
                                    |----3----|          
  Q     E    E    E    E      Q     E    E    E   E  E   
--3--------------------L---|--2----(0)---0---(0)--0--2--|
--0------------------------|--0-----0----0----0---0--L--|
--0----(0)---0---(0)---0---|--0-----0----0----0---0--L--|
--2-----2----2----2----2---|--2-----2----2----2---2--L--|
--2-----2----2----2----2---|--2-----2----2----2---2--L--|
--0-----0---(0)---0---(0)--|--0-----0---(0)---0---0--L--|


                                                     D                       
  ^     ^    v    ^   ^       ^    ^     ^    v      ^     ^   v   ^   ^     
        |----3----|                                        |---3---|         
  Q     E    E    E   Q       Q    Q     E    E      Q     E   E   E   Q     
--0----(0)---0---(0)--0----|--2----3-----5----L---|--2----(2)--2--(2)--2----|
--0-----0----0----0---0----|--0----0--------------|--3-----3---3---3---3----|
--0-----0----0----0---0----|--0----0----(0)---0---|--2-----2---2---2---2----|
--2-----2----2----2---2----|--2----2-----2----2---|--0-----0---0---0---0----|
--2-----2----2----2---2----|--2----2-----2----2---|-------------------------|
--0-----0---(0)---0---0----|--0----0-----0---(0)--|-------------------------|


  ^     ^   v   v            ^     ^   v   ^   ^       ^               
        |---3---|                  |---3---|                           
  Q     E   E   E   E  E     Q     E   E   E   Q       Q    Q    Q     
--2-----L---L--(2)-----0--|--2----(2)--2--(2)--2----|--2----7----9----|
--3----(3)--L---3---3-----|--3-----3---3---3---3----|--3--------------|
--2-----2---L---2------L--|--2-----2---2---2---2----|--2--------------|
--0-----0---L---0------L--|--0-----0---0---0---0----|--0---------L----|
--------------------------|-------------------------|-----------------|
--------------------------|-------------------------|-----------------|


  Bm7                                                    
  ^       ^   v   ^            ^     ^   v   v           
              |---3---|              |---3---|           
  E    E  E   E   E   E  E     Q     E   E   E   E   E   
--9h--10-----10--10---L--L--|--9----(9)--L--(9)--7h--9--|
--7----L--7---7---7---L--L--|--7-----7---L---7-------L--|
--7----L--7---7---7---L--L--|--7-----7---L---7-------L--|
--7----L--7---7---7---L--L--|--7-----7---L---7-------L--|
--9----L--9-----------------|--9-----9---L---9-------L--|
--7----L--7-----------------|--7-----7---L---7-------L--|


  ^     ^   v   v   ^          ^                 
        |---3---|                                
  Q     E   E   E   Q          Q     Q     Q     
--7----(7)--L--(7)--7----|--7g(9)----9----10----|
--7-----7---L---7---7----|-----7-----------L----|
--7-----7---L---7---7----|-----7-----------L----|
--7-----7---L---7---7----|-----7-----------L----|
--9-----9---L---9---9----|-----9-----------L----|
--7-----7---L---7---7----|-----7-----------L----|


   A                                                          
   ^         ^   v    v    ^        ^      ^   v   v    ^     
             |----3---|                    |---3---|          
   S   E.    E   E    E    Q        Q      E   E   E    Q     
--11h-12-----L---L--(11)--12----|---0------L---L--(0)--10----|
--10---L---(10)--L---10---10----|--10----(10)--L--10---10----|
---9---L-----9---L----9----9----|---9------9---L---9----9----|
--11---L----11---L---11---11----|--11-----11---L--11---11----|
---0---L-----0---L----0----0----|---0------0---L---0----0----|
--------------------------------|----------------------------|


                                                           Em             
   ^      ^   v   v    ^       ^     ^   v   v             ^      ^       
          |---3---|                  |---3---|                            
   Q      E   E   E    Q       Q     E   E   E   E   E     Q.     Q.      
---9------L---L--(9)---9----|--5----(5)--L--(5)--5---6--|--7------7------|
--10----(10)--L--10---10----|--5-----5---L---5-------L--|--8------8------|
---9------9---L---9----9----|--6-----6---L---6-------L--|--9------9------|
--11-----11---L--11---11----|--7-----7---L---7-------L--|--9------9------|
---0------0---L---0----0----|--7-----7---L---7-------L--|--7------7------|
----------------------------|--5-----5---L---5-------L--|--0------0------|


  ^     ^    v    ^   ^       ^      ^         ^                   
        |----3----|                                                
  Q     E    E    E   Q       Q.     Q.        Q      E  E  E  E   
--7----(7)---7---(7)--7----|--7------7------|--7----5g7--5--------|
--8-----8----8----8---8----|--8------8------|--8------------8--7--|
--9-----9----9----9---9----|--9------9------|--9------------------|
--9-----9----9----9---9----|--9------9------|--9------------------|
--7-----7----7----7---7----|--7------7------|--7------------------|
--0-----0---(0)---0---0----|--0------0------|--0------------------|


  D6                                                          
  ^      ^         ^     ^    v    ^   ^       ^      ^       
                         |----3----|                          
  Q.     Q.        Q     E    E    E   Q       Q.     Q.      
--7------7------|--7----(7)---7---(7)--7----|--7------7------|
--7------7------|--7-----7----7----7---7----|--7------7------|
--7------7------|--7-----7----7----7---7----|--7------7------|
--0------0------|--0-----0---(0)---0---0----|--0------0------|
----------------|---------------------------|----------------|
----------------|---------------------------|----------------|


                        B7                                      
  ^                     ^      ^                                
  Q      E  E  E  E     Q.     Q.        E  E   E  S  S  E  E   
--7----5g7--5--------|--7------7------|--7--8--10--8p-7--------|
--7------------8--7--|--7------7------|-----------------10--8--|
--7------------------|--8------8------|------------------------|
--0------------------|--7------7------|------------------------|
---------------------|--9------9------|------------------------|
---------------------|--7------7------|------------------------|


                            >    ^    >                            
           |--3--|                                                 
  E  E  E  S  S  Q    E     Q    Q    Q       E  E  E  S  S E  E   
-------------------------|-----------------|----------------------|
--7--5--4--4h-5p-4-------|-----------------|----------------------|
----------------------5--|--4----2----0----|-----0--2--2p-0-------|
-------------------------|-----------------|--4-------------4--2--|
-------------------------|-----------------|----------------------|
-------------------------|-----------------|----------------------|


  Q    Q    E  E     S  S E  Q    Q       H.            
------------------|--------------------|---------------|
------------------|--------------------|---------------|
------------------|--------------------|---------------|
--1---------------|--------------------|---------------|
-------3----2--3--|--2h-3-0------------|---------------|
------------------|----------3----2----|--2------------|


  hit guitar body                                        
  >                                                      
                  |-----5-----|                          
  Q               E  E  E  E  E     S S  E  E  E  E  E   
------------------2--3--5--------|----------------------|
------------------------------5--|--4-5p-4--------------|
---------------------------------|----------5--4--2--0--|
---------------------------------|----------------------|
---------------------------------|----------------------|
--x------------------------------|----------------------|


                                                               ^     
  E   E   E  E  E   E      E  E  E  E  E  S  S     E  E  E  E  Q     
-----(8)--------L--(5)--|-----L--7-----------L--|--2--------L--3----|
------------------------|-----------------------|--------------x----|
----------0-------------|-----------------------|--------------x----|
------------------------|--1--2-----------1h-2h-|--1-----------x----|
--9---7------6------3---|--------------2--------|-----3--2--0--2----|
------------------------|--------7--------------|-------------------|


           ^                                                                  
  H        Q       H        E    E      H.              Q      Q       Q      
--L--------2----|--L--------0h--(2)--|--0------------|--2h----(3)h----(5)----|
-----------0----|--L-----------------|--L------------|-----------------L-----|
-----------0----|--L-----------------|--L------------|-----------------L-----|
----------------|--------------------|---------------|-----------------------|
----------------|--------------------|---------------|-----------------------|
----------------|--------------------|---------------|-----------------------|


                        ^                 ^                                
       |--3--|                                                             
  Q    E  E  E  Q       H        E  E     H.               Q    Q    Q     
--2----2--2--2--2----|--2--------0--1--|--2~------------|-------7----9----|
---------------------|--3--------------|--3-------------|-----------------|
---------------------|--2--------------|--2-------------|-------7----9----|
--0-------------L----|--0--------------|----------------|-----------------|
---------------------|-----------------|----------------|-----------------|
---------------------|-----------------|----------------|-----------------|


                             D                                
        >      >             ^                                
        |------5------|                |--------5--------|    
  Q     E  E   E  E   E      E    E    E    E    E   E   E    
-------10-----10-----10--|-------(9)-------(9)-------9-------|
-----------7------7------|--(7)-------(7)-------(7)-----(7)--|
-------------------------|---7---------------------------L---|
-------------------------|---7---------------------------L---|
-------------------------|---9---------------------------L---|
--7----------------------|-------------------------------L---|


   Bm                                                                        
   ^                                                                   ^     
   |--------5-------|                                                        
   E    E   E   E   E   E     E      E   E  E   E   E   E     H        Q     
--(7)-------7-------7-------(10)--|-----10-----10----------|--9--------9----|
---7---(7)-----(7)-----(7)--------|--7------7------(7)--L--|----------------|
---7--------------------------L---|---------------------L--|-----------6----|
----------------------------------|------------------------|-----------7----|
----------------------------------|------------------------|--0--------0----|
----------------------------------|------------------------|----------------|


                       A                                                   
            >  >       ^       ^     v     ^    v       ^       ^  >   >   
  Q    Q    E  E       Q       E     E     E    E       Q.      E  E   E   
--L---------7--8--|----9------(9)---(9)---(9)--(9)--|---------------------|
------------------|--(10)----(10)--(10)--(10)--10---|--10------10---------|
--L---------------|---(9)-----(9)---(9)----9----9---|---9-------9--0h--2--|
--L---------------|--(11)----(11)--(11)---11---11---|--11------11---------|
--L---------------|---(0)-----(0)---(0)----0----0---|---0-------0---------|
------------------|---------------------------------|---------------------|


  Em                                                     
  ^     ^    v    ^    v      ^     ^    v    ^   ^      
                                    |----3----|          
  Q     E    E    E    E      Q     E    E    E   E  E   
--3--------------------L---|--2----(0)---0---(0)--0--2--|
--0------------------------|--0-----0----0----0---0--L--|
--0----(0)---0---(0)---0---|--0-----0----0----0---0--L--|
--2-----2----2----2----2---|--2-----2----2----2---2--L--|
--2-----2----2----2----2---|--2-----2----2----2---2--L--|
--0-----0---(0)---0---(0)--|--0-----0---(0)---0---0--L--|


                                                     D                       
  ^     ^    v    ^   ^       ^    ^     ^    v      ^     ^   v   ^   ^     
        |----3----|                                        |---3---|         
  Q     E    E    E   Q       Q    Q     E    E      Q     E   E   E   Q     
--0----(0)---0---(0)--0----|--2----2-----3----L---|--2----(2)--2--(2)--2----|
--0-----0----0----0---0----|--0----0--------------|--3-----3---3---3---3----|
--0-----0----0----0---0----|--0----0----(0)---0---|--2-----2---2---2---2----|
--2-----2----2----2---2----|--2----2-----2----2---|--0-----0---0---0---0----|
--2-----2----2----2---2----|--2----2-----2----2---|-------------------------|
--0-----0---(0)---0---0----|--0----0-----0---(0)--|-------------------------|


  ^     ^   v   v            ^     ^   v   ^   ^       ^               
        |---3---|                  |---3---|                           
  Q     E   E   E   E  E     Q     E   E   E   Q       Q    Q    Q     
--2-----L---L--(2)-----0--|--2----(2)--2--(2)--2----|--2----7----9----|
--3----(3)--L---3---3-----|--3-----3---3---3---3----|--3--------------|
--2-----2---L---2------L--|--2-----2---2---2---2----|--2--------------|
--0-----0---L---0------L--|--0-----0---0---0---0----|--0---------L----|
--------------------------|-------------------------|-----------------|
--------------------------|-------------------------|-----------------|


  Bm7                                                    
  ^       ^   v   ^            ^     ^   v   v           
              |---3---|              |---3---|           
  E    E  E   E   E   E  E     Q     E   E   E   E   E   
--9h--10-----10--10---L--L--|--9----(7)--L--(7)--7h--9--|
--7----L--7---7---7---L--L--|--7-----7---L---7-------L--|
--7----L--7---7---7---L--L--|--7-----7---L---7-------L--|
--7----L--7---7---7---L--L--|--7-----7---L---7-------L--|
--9----L--9-----------------|--9-----9---L---9-------L--|
--7----L--7-----------------|--7-----7---L---7-------L--|


  ^     ^   v   v   ^          ^     ^     ^     
        |---3---|                                
  Q     E   E   E   Q          Q     Q     Q     
--7----(7)--L--(7)--7----|--7g(9)----9----10----|
--7-----7---L---7---7----|-----7-----7-----7----|
--7-----7---L---7---7----|-----7-----7-----7----|
--7-----7---L---7---7----|-----7-----7-----7----|
--9-----9---L---9---9----|-----9-----9-----9----|
--7-----7---L---7---7----|-----7-----7-----7----|


   A                                                          
   ^         ^   v    v    ^        ^      ^   v   v    ^     
             |----3---|                    |---3---|          
   S   E.    E   E    E    Q        Q      E   E   E    Q     
--11h-12-----L---L--(11)--12----|---0------L---L--(0)--10----|
--10---L---(10)--L---10---10----|--10----(10)--L--10---10----|
---9---L-----9---L----9----9----|---9------9---L---9----9----|
--11---L----11---L---11---11----|--11-----11---L--11---11----|
---0---L-----0---L----0----0----|---0------0---L---0----0----|
--------------------------------|----------------------------|


                                                           Em             
   ^      ^   v   v    ^       ^     ^   v   v             ^      ^       
          |---3---|                  |---3---|                            
   Q      E   E   E    Q       Q     E   E   E   E   E     Q.     Q.      
---9------L---L--(9)---9----|--5----(5)--L--(5)--5---6--|--7------7------|
--10----(10)--L--10---10----|--5-----5---L---5-------L--|--8------8------|
---9------9---L---9----9----|--6-----6---L---6-------L--|--9------9------|
--11-----11---L--11---11----|--7-----7---L---7-------L--|--9------9------|
---0------0---L---0----0----|--7-----7---L---7-------L--|--7------7------|
----------------------------|--5-----5---L---5-------L--|--0------0------|


  ^     ^    v    ^   ^       ^      ^         ^                   
        |----3----|                                                
  Q     E    E    E   Q       Q.     Q.        Q      E  E  E  E   
--7----(7)---7---(7)--7----|--7------7------|--7----5g7--5--------|
--8-----8----8----8---8----|--8------8------|--8------------8--7--|
--9-----9----9----9---9----|--9------9------|--9------------------|
--9-----9----9----9---9----|--9------9------|--9------------------|
--7-----7----7----7---7----|--7------7------|--7------------------|
--0-----0---(0)---0---0----|--0------0------|--0------------------|


  D6                                                          
  ^      ^         ^     ^    v    ^   ^       ^      ^       
                         |----3----|                          
  Q.     Q.        Q     E    E    E   Q       Q.     Q.      
--7------7------|--7----(7)---7---(7)--7----|--7------7------|
--7------7------|--7-----7----7----7---7----|--7------7------|
--7------7------|--7-----7----7----7---7----|--7------7------|
--0------0------|--0-----0---(0)---0---0----|--0------0------|
----------------|---------------------------|----------------|
----------------|---------------------------|----------------|


                        B7                                           
  ^                     ^      ^                 ^    v    ^   ^     
                                                 |----3----|         
  Q      E  E  E  E     Q.     Q.        E   E   E    E    E   Q     
--7----5g7--5--------|--7------7------|--5S--7--(7)---7---(7)--7----|
--7------------8--7--|--7------7------|------L---7----7----7---7----|
--7------------------|--8------8------|------L---8----8----8---8----|
--0------------------|--7------7------|------L---7----7----7---7----|
---------------------|--9------9------|------L---9----9----9---9----|
---------------------|--7------7------|------L---7---(7)---7---7----|


           |---3---|   |---3---|       |-----3-----|    |---3---|   |---3---|   
  E    E   E   E   E   E   E   E       E     E     E    E   E   E   E   E   E   
--7S--11--11--11--11--11--11--11--|---14----14----14---17--17--17--17--17--17--|
-------L--10--10--10--10--10--10--|--(12)--(12)--(12)--------------------------|
-------L--11--11--11--11--11--11--|--------------------------------------------|
-------L---9---9---9---9---9---9--|--------------------------------------------|
-------L--------------------------|--------------------------------------------|
-------L--------------------------|--------------------------------------------|


              |-----3-----|        |-----3-----|     |-----3-----|            
   H          E     E     E        E     E     E     E     E     E     Q      
--17--------(19)--(19)--(19)--|--(19)--(19)--(19)--(19)--(19)--(19)--(19)----|
------------------------------|----------------------------------------------|
------------------------------|----------------------------------------------|
------------------------------|----------------------------------------------|
------------------------------|----------------------------------------------|
------------------------------|----------------------------------------------|


  H.             
--L------------||
---------------||
---------------||
---------------||
---------------||
---------------||




Duration Legend
---------------
W - whole
H - half
Q - quarter
E - 8th
S - 16th
T - 32nd
X - 64th
. - note dotted
|-n-|  - n-tuplets


Tablature Legend
----------------
L - tied note
x - dead note
g - grace note
(n) - ghost note
> - accentuded note
NH - natural harmonic
AH - artificial harmonic
TH - tapped harmonic
SH - semi harmonic
PH - pitch harmonic
h - hammer on
p - pull off
b - bend
br - bendRelease
pb - preBend
pbr - preBendRelease
brb - bendReleaseBend
\n/ - tremolo bar dip
\n - tremolo bar dive
-/n - tremolo bar Release up
/n\ - tremolo bar inverted dip
/n - tremolo bar return
-\n - tremolo bar Release down
S - shift slide
s - legato slide
/ -  slide into from below or out of upwards
\ -  slide into from above or out of downwards
~ - vibrato
W - wide vibrato
tr - trill
TP - tremolo picking
T - tapping
S - slap
P - pop
< - fade in
^ - brush up
v - brush down
comments
We did not receive enough feedback on this tab! Please rate:
print report bad tab
1 2 3 4 5
I want to post or [tab]
guest
You may want to rate the tab now too:
select rating
Please do not post tabs as comments. Select "correction" instead!