Oops, an error
Loading. Please wait.

Death Or Glory Tab

570 views 1 this week
no commentswrite comment
1 2 3 4 5
please rate
Autoscroll
+/-
esc
set tempo
stop
Contributor
WARNING: You are trying to view
                                    content from Ultimate-Guitar.com
                                    in an unauthorized application,
                                    which is prohibited.

                                    Please use an official Ultimate
                                    Guitar Tabs application for iPhone,
                                    iPad or Android to access legitimate
                                    chords, guitar, bass, and drum tabs
                                    from Ultimate-Guitar.com database.

                                    Type "ultimate guitar tabs" in Apple
                                    App Store's or Android Market's
                                    search to find the application.
Running Wild
Death or Glory
Death or Glory

v 1.0 March 2008


~ = vibrato or held note
h = hammer on
p = pull off
s = slide
fb =  full bend
hb = half bend
r = release bend
* = artificial harmonic


Death or Glory, title track of probably the best Running Wild album, also 
one of Running Wilds most technical songs. The highlights are definitely 
the pre chorus and the vocal arrangements for the chorus.
Corrections, suggestions to beardedattacker@hotmail.com



(00:10) Figure A

e:-------------------------------------------------------------------|
B:-------------------------------------------------------------------|
G:---0-2-4-5p0-0-7p0-0-9p0-0-10p9p0-12p9-5-5-5-5-4-5-7---------------|
D:-------------------------------------------------------------------|
A:-------------------------------------------------------------------|
E:-------------------------------------------------------------------|
 |                                                                   |
e:-------------------------------------------------------------------|
B:-------------------------------------------------------------------|
G:-------------------------------------------------------------------|
D:----------5-----7----9-----10-----12----5--------------------------|
A:----------3-----5----7-----8------10----3------5-------------------|
E:-----------------------------------------------3-------------------|


e:-------------------------------------------------------------------|
B:-------------------------------------------------------------------|
G:---0-2-4-5p0-0-7p0-0-9p0-0-10p9-0-12p9-5-5-4-5-7-------------------|
D:-------------------------------------------------5-5---------------|
A:-------------------------------------------------------------------|
E:-------------------------------------------------------------------|
 |                                                                   |
e:-------------------------------------------------------------------|
B:-------------------------------------------------------------------|
G:-------------------------------------------------------------------|
D:----------5-----7----9-----10-----5-----5--------------------------|
A:----------3-----5----7-----8------3-----3-------5------------------|
E:------------------------------------------------3------------------|


e:-------------------------------------------------------------------|
B:-------------------------------------------------------------------|
G:---0-2-4-5p0-0-7p0-0-9p0-0-10p9p0-12p9-5-5-5-5-4-5-7---------------|
D:-------------------------------------------------------------------|
A:-------------------------------------------------------------------|
E:-------------------------------------------------------------------|


e:-------------------------------------------------------------------|
B:-------------------------------------------------------------------|
G:---0-2-4-5p0-0-7p0-0-9p0-0-10p9-0-12p9-5-5-4-5-7-------------------|
D:-------------------------------------------------5-5---------------|
A:-------------------------------------------------------------------|
E:-------------------------------------------------------------------|



(00:22)

e:-------------------------------------------------------------------|
B:-------------------------------------------------------------------|
G:---0-2-4-5p0-0-7p0-0-9p0-0-10p9p0-12p9-5-5-5-5-4-5-7---------------|
D:-------------------------------------------------------------------|
A:-------------------------------------------------------------------|
E:-------------------------------------------------------------------|
 |                                                                   |
e:-------------------------------------------------------------------|
B:-------------------------------------------------------------------|
G:-------------------------------------------------------------------|
D:----------5----------9-----10-----12-----5--4----------------------|
A:----------3-3-3-3----7-----8------10-----3--2--5-------------------|
E:-----------------------------------------------3-------------------|


e:-------------------------------------------------------------------|
B:-------------------------------------------------------------------|
G:---0-2-4-5p0-0-7p0-0-9p0-0-10p9-0-12p9-5-5-4-5-7-------------------|
D:-------------------------------------------------5-5---------------|
A:-------------------------------------------------------------------|
E:-------------------------------------------------------------------|
 |                                                                   |
e:-------------------------------------------------------------------|
B:-------------------------------------------------------------------|
G:-------------------------------------------------------------------|
D:----------5----------9-----10-----12-----5-------------------------|
A:----------3-3-3-3----7-----8------10-----3-----5-------------------|
E:-----------------------------------------------3-------------------|


e:-------------------------------------------------------------------|
B:-------------------------------------------------------------------|
G:---0-2-4-5p0-0-7p0-0-9p0-0-10p9----12p9----10p9----4-5-7-----------|
D:--------------------------------10------10------10-----------------|
A:-------------------------------------------------------------------|
E:-------------------------------------------------------------------|


e:-------------------------------------------------------------------|
B:-------------------------------------------------------------------|
G:---0-2-4-5p0-0-7p0-0-9p0-0-10p9p0-12p9-5-5-4-5-7-0-0-0-2-4---------|
D:-------------------------------------------------------------------|
A:-------------------------------------------------------------------|
E:-------------------------------------------------------------------|



(00:33) Figure B

e:-------------------------------------------------------------------|
B:-------------------------------------------------------------------|
G:--2-------2-------------------2-------5--4--2--5-s4----------------|
D:--2-------2-------------------2-------3--2--0--3-s2-2-2-2--2h3p2-0-|
A:--0-0-0-0-0-0-2-3-3-2-0-0-0-0-0-0-0-0------------------------------|
E:-------------------------------------------------------------------|


e:-----------------------------------------------------|-------------|
B:-----------------------------------------------------|-------------|
G:------2-------2----------------------5-5---------7-7-|--2-------2--|
D:------2-------2----------------------3-3-5-5-7-7-5-5-|--2-------2--|
A:--3-2-0-0-0-0-0--3~-2~----0~--0-0-0------3-3-5-5-----|--0-0-0-0-0--|
E:-----------------------3~----------------------------|-------------|


e:-------------------------------------------------------------------|
B:-------------------------------------------------------------------|
G:--------------------2-------5--4--2--5--4--------------------2-----|
D:--------------------2-------3--2--0--3-s2-2-2-2--2h3p2-0-----2-----|
A:--0-2-3-3-2-0-0-0-0-0-0-0-0------------------------------3-2-0-0-0-|
E:-------------------------------------------------------------------|


e:-------------------------------------------------------------------|
B:-------------------------------------------------------------------|
G:----2--------------------------------------------------------------|
D:----2--------------------------------------------------------------|
A:--0-0--3~-2~---0~--0-0-0-------------------------------------------|
E:------------3~-----------------------------------------------------|



(00:52) Figure C

e:-------------------------------------------------------------------|
B:-------------------------------------------------------------------|
G:------------------5-5-5----------------5-5-5-----------------------|
D:---10-9-7---------3-3-3-3-2-5s7--------3-3-3-3-2-3-----5--7--------|
A:----8-7-5--5-5-5--------1-0-3s5--5-5-5-------1-0-1--5--3--5--5-5-5-|
E:----------------------------------------------------3--------------|

e:-------------------------------------------------------------------|
B:-------------------------------------------------------------------|
G:--5-5-5----------------5-5-5---------------------------------------|
D:--3-3-3-3-2-5s7--------3-3-3--3-2-3-----5--4-----------------------|
A:--------1-0-3s5--5-5-5--------1-0-1--5--3--2-----------------------|
E:-------------------------------------3-----------------------------|



(01:03) Figure D (with rythm figure B)

e:-------------------------------------------------------------------|
B:-------------------------------------------------------------------|
G:--4-5-7-0-2-4-5p0-0-7p0-0-9p0-0-10p9p0-12p9-5-5-5-5-4-5-7----------|
D:-------------------------------------------------------------------|
A:-------------------------------------------------------------------|
E:-------------------------------------------------------------------|


e:-------------------------------------------------------------------|
B:-------------------------------------------------------------------|
G:---0-2-4-5p0-0-7p0-0-9p0-0-10p9-0-12p9-5-5-4-5-7-0-0---------------|
D:-------------------------------------------------------------------|
A:-------------------------------------------------------------------|
E:-------------------------------------------------------------------|


e:-------------------------------------------------------------------|
B:-------------------------------------------------------------------|
G:---0-2-4-5p0-0-7p0-0-9p0-0-10p9p0-12p9-5-5-5-5-4-5-7---------------|
D:-------------------------------------------------------------------|
A:-------------------------------------------------------------------|
E:-------------------------------------------------------------------|


e:-------------------------------------------------------------------|
B:-------------------------------------------------------------------|
G:---0-2-4-5p0-0-7p0-0-9p0-0-10p9-0-12p9-5-5-4-5-7-0-0-0-2-4---------|
D:-------------------------------------------------------------------|
A:-------------------------------------------------------------------|
E:-------------------------------------------------------------------|



(01:45) Figure E

e:-------------------------------------------------------------------|
B:-------------------------------------------------------------------|
G:-------------------------------------------------------------------|
D:---------------------5---------------------------------2--------3--|
A:--2h3h5-3-------0-2--3-----3--s5--s7-----5------5-2-5--0--0-2-3----|
E:--------1---1h3--------------------------3------3-0-3--------------|


e:-------------------------------------------------------------------|
B:-------------------------------------------------------------------|
G:-------------------------------------------------------------------|
D:---5--7--8---------------------------------------------------------|
A:---3--5--6---------------------------------------------------------|
E:-------------------------------------------------------------------|



(01:53) Figure F
e:-------------------------------------------------------------------|
B:-------------------------------------------------------------------|
G:-------------------------------------------7---------7-------------|
D:---9---------9---------9---------9---------5---------5----------5--|
A:---7---------7---------7---------7------------------------------3--|
E:-----0-0-0-0---0-0-0-0---0-0-0-0---0-0-0-0----0-0-0-0---0-0-0-0----|


e:-----------------|-------------------------------------------------|
B:-----------------|-------------------------------------------------|
G:-----------------|-------------------------------------------------|
D:-----------5--7--|---9---------9---------9---------9---------------|
A:-----------3--5--|---7---------7---------7---------7----------5----|
E:--0-0-0-0--------|-----0-0-0-0---0-0-0-0---0-0-0-0---0-0-0-0--3----|


e:---------------------------------|---------------------------------|
B:---------------------------------|---------------------------------|
G:---------------------------------|---------------------------------|
D:---------------------5--7--7--9--|--9---------9---------9----------|
A:-----------5---------3--4--5--6--|--7---------7---------7----------|
E:---0-0-0-0-3-0-0-0-0-------------|----0-0-0-0---0-0-0-0---0-0-0-0--|


e:--------------------------------------------------|----------------|
B:--------------------------------------------------|----------------|
G:-------------7---------7--------------------------|----------------|
D:---9---------5---------5---------5----------5--7--|--9---------9---|
A:---7-----------------------------3----------3--5--|--7---------7---|
E:-----0-0-0-0---0-0-0-0---0-0-0-0---0-0-0-0--------|----0-0-0-0-----|


e:-------------------------------------------------------------------|
B:-------------------------------------------------------------------|
G:-------------------------------------------------------------------|
D:-----------9---------9---------------------------------------------|
A:-----------7---------7----3--3----3--3------3----------------------|
E:---0-0-0-0---0-0-0-0------1--1----1--1----3------------------------|



(02:15) Figure G (all leads by Majk Moti)

e:-------------------------------------------------------------------|
B:---17-13----13-17-13-17-13-----------------------------------------|
G:---------14----------------14-------------------------------12-14--|
D:------------------------------14-12-------------11s12-14-15--------|
A:------------------------------------15-12-14-15--------------------|
E:-------------------------------------------------------------------|
 |                                                                   |
e:-------------------------------------------------------------------|
B:-------------------------------------------------------------------|
G:-------------------------------------------------------------------|
D:-------------------------------------------------------------------|
A:---0-0-0-0-0-0-0-0-0-0-0-0-0-0-0-0-0-0-0-0-0-0-0-0-0-0-0-0-0-0-----|
E:-------------------------------------------------------------------|


e:-------------------------------------------------------------------|
B:-12-13-15--17-13----13-17-13-17-13---------------18-15----15-18-15-|
G:-----------------14----------------14----14------------16----------|
D:--------------------------------------14---------------------------|
A:--------------------------------------------15---------------------|
E:-------------------------------------------------------------------|
 |                                                                   |
e:-------------------------------------------------------------------|
B:-------------------------------------------------------------------|
G:-------------------------------------------------------------------|
D:-------------------------------------------------------------------|
A:---0-0-0-0-0-0-0-0-0-0-0-0-0-0-0-0-0-0-0-0-0-0-0-------------------|
E:--------------------------------------------------1-1-1-1-1-1-1-1--|


e:-------------------------------------------------------------------|
B:--20-15------------------------------------------------------------|
G:--------17---------------------------------------------------------|
D:-----------17------------------------------------------------------|
A:-------------------------------------------------------------------|
E:-------------------------------------------------------------------|
 |                                                                   |
e:-------------------------------------------------------------------|
B:-------------------------------------------------------------------|
G:-------------------------------------------------------------------|
D:-------------------------------------------------------------------|
A:-------------------------------------------------------------------|
E:--3-3-3-3-3-3-3-3--------------------------------------------------|



(02:21) Figure H

e:-------------------------------------------------------------------|
B:-------------------------------------------------------------------|
G:--10-10-12-9-9-10-7-7-9-5-5-7-4-5-5-2-2-4--------------------------|
D:-------------------------------------------------------------------|
A:-------------------------------------------------------------------|
E:-------------------------------------------------------------------|
 |                                                                   |
e:-------------------------------------------------------------------|
B:-------------------------------------------------------------------|
G:-------------------------------------------------------------------|
D:-------------------------------------------------------------------|
A:--8--8--10-7-7-8--5-5-7-3-3-5-2-2-3-0-0-2--------------------------|
E:-------------------------------------------------------------------|



(02:22) Figure I

e:-------------------------------------------------------------------|
B:-------------------------------------------------------------------|
G:o--5-2-2-5-2-2-5-2-2-5-2-2--4-2-2-4-2-2-4-2-2-4-2-2--4-0-0-4-0-0---|
D:o------------------------------------------------------------------|
A:-------------------------------------------------------------------|
E:-------------------------------------------------------------------|
 |                                                                   |
e:-------------------------------------------------------------------|
B:-------------------------------------------------------------------|
G:o------------------------------------------------------------------|
D:o------------------------------------------------------------------|
A:---3-0-0-3-0-0-3-0-0-3-0-0--2-0-0-2-0-0-2-0-0-2-0-0--2-----2-------|
E:-------------------------------------------------------3-3---3-3---|


e:-------------------------------------------------------------------|
B:-------------------------------------------------------------------|
G:--4-0-0-4-0-0-4------------4--------------------------------------o|
D:-----------------2-2-2-2-2-2*-------------------------------------o|
A:-------------------------------------------------------------------|
E:-------------------------------------------------------------------|
 |                                                                   |
e:-------------------------------------------------------------------|
B:-------------------------------------------------------------------|
G:------------------------------------------------------------------o|
D:------------------------------------------------------------------o|
A:--2-----2-----2------------2---------------------------------------|
E:----3-3---3-3----0-0-0-0-0-0---------------------------------------|



(02:34)

e:-------------------------------------------------------------------|
B:---20fb-20fbr-20p17--23fb-fb-----15p12-----------------------------|
G:---------------------------------------12-14--------------14~------|
D:---------------------------------------------9h10------------------|
A:-------------------------------------------------------------------|
E:--------------------------------------------------10---------------|
 |                                                                   |
e:-------------------------------------------------------------------|
B:-------------------------------------------------------------------|
G:--------------------------------------------------9----------------|
D:---------------------5----5------9----9-----------7-------2--------|
A:---3----3------------3----3------7----7-------------------0--------|
E:---1----1----------------------------------------------------------|


e:-------------------------------------------------------------------|
B:-------------------------------------------------------------------|
G:--14-16-17---------------------------------------------------------|
D:-------------------------------------------------------------------|
A:-------------15----------------------------------------------------|
E:-------------------------------------------------------------------|
 |                                                                   |
e:-------------------------------------------------------------------|
B:-------------------------------------------------------------------|
G:-------------------------------------------------------------------|
D:--2--4--5------------------------3----6----------------------------|
A:--0--2--3--------------2----5--------------------------------------|
E:-------------1----4------------------------------------------------|



(02:39)

e:-------------------------------------------------------------------|
B:-------------------------------------------------------------------|
G:o--2-2-5-2-2-5-2-2-5-2-5-5--4-4-5-4-4-5-4-4-5-4-4-5--5-5-9-5-5-9-5-|
D:o------------------------------------------------------------------|
A:-------------------------------------------------------------------|
E:-------------------------------------------------------------------|
 |                                                                   |
e:-------------------------------------------------------------------|
B:-------------------------------------------------------------------|
G:o------------------------------------------------------------------|
D:o--------------------------------------------------------2-----2---|
A:---0-0-3-0-0-3-0-0-3-0-0-3--2-2-3-2-2-3-2-2-3-2-2-3--3-3---3-3---3-|
E:-------------------------------------------------------------------|



e:-------------------------------------------------------------------|
B:-------------------------------------------------------------------|
G:--5-9-5-5-9--7-7-7-7s9--------------------------------------------o|
D:------------------------------------------------------------------o|
A:-------------------------------------------------------------------|
E:-------------------------------------------------------------------|
 |                                                                   |
e:-------------------------------------------------------------------|
B:-------------------------------------------------------------------|
G:------------------------------------------------------------------o|
D:----2-----2--7-7-7-7-9--------------------------------------------o|
A:--3---3-3----5-5-5-5-7---------------------------------------------|
E:-------------------------------------------------------------------|



(02:50)

e:-------------------------------------------------------------------|
B:----------------------------------------17~---------------13p12----|
G:---------------------------------14--17-----------9~------------12-|
D:-s7~---------7-10~-----------14-------------------10~--------------|
A:-------------------------------------------------------------------|
E:-------------------------------------------------------------------|
 |                                                                   |
e:-------------------------------------------------------------------|
B:-------------------------------------------------------------------|
G:-----------------------------------------9-------------------------|
D:----------------5----5--------9----9-----7--------2--------2--4--5-|
A:--3----3--------3----3--------7----7--------------0--------0--2--3-|
E:--1----1-----------------------------------------------------------|


e:------------------------------|------------------------------------|
B:------------------------------|---------------------------------22-|
G:--14~~~~----------------------|--14~-----------17~-----------21----|
D:------------------------------|------------------------------------|
A:------------------------------|------------------------------------|
E:------------------------------|------------------------------------|
 |                                                                   |
e:------------------------------|------------------------------------|
B:------------------------------|------------------------------------|
G:------------------------------|------------------------------------|
D:----------------------3----6--|----------------5----5--------9-----|
A:------------2----5------------|--3----3--------3----3--------7-----|
E:--1----4----------------------|--1----1----------------------------|


e:--20-24~------20-------20-19------10---7---------------------------|
B:-----------------------------20------------9----6------------------|
G:---------------------------------------------------7----4----------|
D:-----------------------------------------------------------6----3--|
A:-------------------------------------------------------------------|
E:-------------------------------------------------------------------|
 |								     |
e:-------------------------------------------------------------------|
B:-------------------------------------------------------------------|
G:-----9-----------------------------------------------------4----7--|
D:-9---7--------2--------2--4--5---------------------3----6----------|
A:-7------------0--------0--2--3-------------2----5------------------|
E:-----------------------------------1----4--------------------------|



e:-------------------------------------------------------------------|
B:-------------------------------------------------------------------|
G:-------------------------------------------------------------------|
D:------------------5------------------------------------------------|
A:--5---2-----------3------------------------------------------------|
E:---------4---1-----------------------------------------------------|
 |								     |
e:---------7---10----------------------------------------------------|
B:--6---9------------------------------------------------------------|
G:-------------------------------------------------------------------|
D:------------------5------------------------------------------------|
A:------------------3------------------------------------------------|
E:-------------------------------------------------------------------|



(03:14)

e:-------------------------------------------------------------------|
B:-------------------------------------------------------------------|
G:-------------------------------------------7---------7-------------|
D:---9---------9---------9-------------------5---------5---------5---|
A:---7---------7---------7---------7-7-7-7-----------------------3---|
E:-----0-0-0-0---0-0-0-0---0-0-0-0---------8---0-0-0-0---0-0-0-0-----|


e:-----------------|-------------------------------------------------|
B:-----------------|-------------------------------------------------|
G:-----------------|-------------------------------------------------|
D:-----------5--7--|---9---------9---------9-------------------------|
A:-----------3--5--|---7---------7---------7---------7-7-7-7-----5---|
E:--0-0-0-0--------|-----0-0-0-0---0-0-0-0---0-0-0-0---------8p7-3---|


e:---------------------------------|---------------------------------|
B:---------------------------------|---------------------------------|
G:---------------------------------|---------------------------------|
D:---------------------5--7--7--9--|--9---------9---------9----------|
A:-----------5---------3--4--5--6--|--7---------7---------7----------|
E:---0-0-0-0-3-0-0-0-0-------------|----0-0-0-0---0-0-0-0---0-0-0-0--|


e:--------------------------------------------------|----------------|
B:--------------------------------------------------|----------------|
G:-------------7---------7--------------------------|----------------|
D:-------------5---------5---------5----------5--7--|--9---------9---|
A:---7-7-7-7-----------------------3----------3--5--|--7---------7---|
E:-----------8---0-0-0-0---0-0-0-0---0-0-0-0--------|----0-0-0-0-----|


e:-------------------------------------------------------------------|
B:-------------------------------------------------------------------|
G:-------------------------------------------------------------------|
D:-----------9----------------------------------------5-5--7-7--7-7--|
A:-----------7---------7-7-7-7----5---------5---------3-3--4-4--5-5--|
E:---0-0-0-0---0-0-0-0---------8--3-0-0-0-0-3-0-0-0-0----------------|


e:--------|----------------------------------------------------------|
B:--------|----------------------------------------------------------|
G:--------|---------------------------------------7---------7--------|
D:--9--9--|--9---------9---------9----------------5---------5--------|
A:--6--6--|--7---------7---------7----------7------------------------|
E:--------|----0-0-0-0---0-0-0-0---0-0-0-0----8-7---0-0-0-0---0-0-0-0|


e:------------------|-----------------------------------|------------|
B:------------------|-----------------------------------|------------|
G:------------------|-----------------------------------|o----------o|
D:--5---------5--7--|--9---------9---------9---------9--|o----------o|
A:--3---------3--5--|--7---------7---------7------------|----3--3----|
E:----0-0-0-0-------|----0-0-0-0---0-0-0-0---0-0-0-0----|----1--1----|

comments
We did not receive enough feedback on this tab! Please rate:
1 2 3 4 5
I want to post or [tab]
guest
You may want to rate the tab now too:
select rating
Please do not post tabs as comments. Select "correction" instead!