Oops, an error
Loading. Please wait.

Privateer Tab

526 views 1 this week
no commentswrite comment
1 2 3 4 5
excellent!
x 1
add to favorites launch autoscroll
font size
0
reset
Autoscroll
+/-
esc
set tempo
stop
Contributor
Difficulty
novice
WARNING: You are trying to view
                                    content from Ultimate-Guitar.com
                                    in an unauthorized application,
                                    which is prohibited.

                                    Please use an official Ultimate
                                    Guitar Tabs application for iPhone,
                                    iPad or Android to access legitimate
                                    chords, guitar, bass, and drum tabs
                                    from Ultimate-Guitar.com database.

                                    Type "ultimate guitar tabs" in Apple
                                    App Store's or Android Market's
                                    search to find the application.
Song: The Privateer
Artist: Running Wild
Album: Black Hand Inn (1994)
Tabbed by: Johannes Samuelsson

This is possibly Running Wild's best song!
It is very fast so listen to the song to get the timing right
because I haven't really bothered that much about it.

Standard tuning (E A D G B e)

Key:

h = hammer-on
p = pull-off
~ = vibrato

Intro:

Guitar 1: (Play twice)
e|------------------------------------------------------------------|
B|------------------------------------------------------------------|
G|------------------------------------------------------------------|
D|--2-2-2-2-2-2-2-2-2-2-2-2-2-2-0-0---------------------------------|
A|----------------------------------3-3-3-3-3-3-3-3-3-3-3-3-5-5-5-5-|
E|------------------------------------------------------------------|

e|----------------------------------------------------------------|
B|----------------------------------------------------------------|
G|----------------------------------------------------------------|
D|2-2-2-2-2-2-2-2-2-2-2-2-2-2-0-0-----------------5-5-5-5---------|
A|--------------------------------3-3-3-3-3-3-3-3---------5-5-5-5-|
E|----------------------------------------------------------------|

Guitar 2: (Play twice)
e|------------------------------------------------------------------|
B|------------------------------------------------------------------|
G|--4---------------4-----------------------------------------------|
D|--2---------------2---------------5---------------5-------7-------|
A|----------------------------------3---------------3-------5-------|
E|------------------------------------------------------------------|

e|----------------------------------------------------------------|
B|----------------------------------------------------------------|
G|4---------------4-------------------------------7---------------|
D|2---------------2---------------5---------------5-------7-------|
A|--------------------------------3-----------------------5-------|
E|----------------------------------------------------------------|

Both guitars:
e|---------------------------------------------------------------|
B|---------------------------------------------------------------|
G|---------------------------------------------------------------|
D|---------------------------------------------------------------|
A|---0---3-----------0---------------0---3-----------0-----------|
E|-----------5---3-------2---3---0-----------5---3-------2---3---|

e|--------------------------------------------------------------|
B|--------------------------------------------------------------|
G|--------------------------------------------------------------|
D|----------------------------------2---5---2-------2-----------|
A|--0---3-----------0---------------------------5-------3---5---|
E|----------5---3-------1---3---0-------------------------------|

Verse:

Both guitars: (Play 4 times)
e|----------------------------------------------------------------|
B|----------------------------------------------------------------|
G|--4-------------------------------------------------------------|
D|--2-2-2-2-2-2-2-2-2-2-2-2-2-2-7---5-----------2---7-----------2-|
A|------------------------------5---3-3-3-3-3-3-0---5-5-5-5-5-5-0-|
E|----------------------------------------------------------------|

Intro again:

Guitar 1: (Play once)
e|------------------------------------------------------------------|
B|------------------------------------------------------------------|
G|------------------------------------------------------------------|
D|--2-2-2-2-2-2-2-2-2-2-2-2-2-2-0-0---------------------------------|
A|----------------------------------3-3-3-3-3-3-3-3-3-3-3-3-5-5-5-5-|
E|------------------------------------------------------------------|

e|----------------------------------------------------------------|
B|----------------------------------------------------------------|
G|----------------------------------------------------------------|
D|2-2-2-2-2-2-2-2-2-2-2-2-2-2-0-0-----------------5-5-5-5---------|
A|--------------------------------3-3-3-3-3-3-3-3---------5-5-5-5-|
E|----------------------------------------------------------------|

Guitar 2: (Play once)
e|------------------------------------------------------------------|
B|------------------------------------------------------------------|
G|--4---------------4-----------------------------------------------|
D|--2---------------2---------------5---------------5-------7-------|
A|----------------------------------3---------------3-------5-------|
E|------------------------------------------------------------------|

e|----------------------------------------------------------------|
B|----------------------------------------------------------------|
G|4---------------4-------------------------------7---------------|
D|2---------------2---------------5---------------5-------7-------|
A|--------------------------------3-----------------------5-------|
E|----------------------------------------------------------------|

Verse:

Both guitars: (Play 4 times)
e|----------------------------------------------------------------|
B|----------------------------------------------------------------|
G|--4-------------------------------------------------------------|
D|--2-2-2-2-2-2-2-2-2-2-2-2-2-2-7---5-----------2---7-----------2-|
A|------------------------------5---3-3-3-3-3-3-0---5-5-5-5-5-5-0-|
E|----------------------------------------------------------------|

Refrain:

Guitar 1: (Play twice)
e|----------------------------------------------------------------|
B|----------------------------------------------------------------|
G|--4-----------------------------------------------------------4-|
D|--2--------------9--------------5--------------7--------------2-|
A|-----------------7--------------3--------------5----------------|
E|----------------------------------------------------------------|

                             |  (Play this the first time)  |
e|----------------------------------------------------------|
B|----------------------------------------------------------|
G|----------------------------------------------------------|
D|-------------9--------------5-------5-------9---5---7---2-|
A|-------------7--------------3---3-3-3---3-3-7---3---5---0-|
E|----------------------------------------------------------|

                             |  (and this the second time)  |
                           e|-------------------------------|
			   B|-------------------------------|
			   G|-------------------------------|
			   D|-5-----------------------------|
			   A|-3-3-3-3-3-3-3-3-3-------------|
			   E|-------------------------------|

Guitar 2: (Play twice)
e|----------------------------------------------------------------|
B|----------------------------------------------------------------|
G|--4-----------------------------------------------------------4-|
D|--2--------------9--------------5--------------7--------------2-|
A|-----------------7--------------3--------------5----------------|
E|----------------------------------------------------------------|

                             |  (Play this the first time)  |
e|----------------------------------------------------------|
B|----------------------------------------------------------|
G|----------------------------------------------------------|
D|-------------9--------------5---------------9---5---7---2-|
A|-------------7--------------3---------------7---3---5---0-|
E|----------------------------------------------------------|

                             |  (and this the second time)  |
                           e|-------------------------------|
			   B|-------------------------------|
			   G|-------------------------------|
			   D|-5-----------------------------|
			   A|-3-3-3-3-3-3-3-3-3-------------|
			   E|-------------------------------|

Intro again:

Guitar 1: (Play once)
e|------------------------------------------------------------------|
B|------------------------------------------------------------------|
G|------------------------------------------------------------------|
D|--2-2-2-2-2-2-2-2-2-2-2-2-2-2-0-0---------------------------------|
A|----------------------------------3-3-3-3-3-3-3-3-3-3-3-3-5-5-5-5-|
E|------------------------------------------------------------------|

e|----------------------------------------------------------------|
B|----------------------------------------------------------------|
G|----------------------------------------------------------------|
D|2-2-2-2-2-2-2-2-2-2-2-2-2-2-0-0-----------------5-5-5-5---------|
A|--------------------------------3-3-3-3-3-3-3-3---------5-5-5-5-|
E|----------------------------------------------------------------|

Guitar 2: (Play once)
e|------------------------------------------------------------------|
B|------------------------------------------------------------------|
G|--4---------------4-----------------------------------------------|
D|--2---------------2---------------5---------------5-------7-------|
A|----------------------------------3---------------3-------5-------|
E|------------------------------------------------------------------|

e|----------------------------------------------------------------|
B|----------------------------------------------------------------|
G|4---------------4-------------------------------7---------------|
D|2---------------2---------------5---------------5-------7-------|
A|--------------------------------3-----------------------5-------|
E|----------------------------------------------------------------|

Solo 1:

Guitar 1:
e|---------------------------------------------|
B|---------------------------------------------|
G|---------------------------------------------|
D|16~----14--------------------14---14-----12--|
A|-------------17---15---17--------------------|
E|---------------------------------------------|

e|------------------------------------------|
B|------------------------------------------|
G|------------------------------------------|
D|---10-12-10-8-10-8-6-8-6-5-6-5-2----------|
A|---------------------------------5-3------|
E|-------------------------------------5~---|

e|---------------------------------------------------------------|
B|---------------------------------------------------------------|
G|---------------------------------------------------------------|
D|----------------------------------------------8-10-12-10-12-14-|
A|-------5-7-9----------7-9-7----------10-12-10------------------|
E|-5-7-8-------10-12-14-------10-12-14---------------------------|

e|-------------------------------------------|
B|-------------------------------------------|
G|-------------------------------------------|
D|-------------------------------------------|
A|17----18---17---15---13---17----18---15~---|
E|-------------------------------------------|

Guitar 2:
e|-----------------------------------------|
B|-----------------------------------------|
G|4----------------------------------------|
D|2----------------------------------------|
A|-----------------------------------------|
E|-----------------------------------------|

e|-----------------------------------------|
B|-----------------------------------------|
G|-----------------------------------------|
D|5----------------------------------------|
A|3----------------------------------------|
E|-----------------------------------------|

e|-----------------------------------------|
B|-----------------------------------------|
G|4----------------------------------------|
D|2----------------------------------------|
A|-----------------------------------------|
E|-----------------------------------------|

e|-----------------------------------------|
B|-----------------------------------------|
G|---------------------7-------------------|
D|5--------------------5----------7--------|
A|3-------------------------------5--------|
E|-----------------------------------------|

Verse:

Both guitars: (Play 4 times)
e|----------------------------------------------------------------|
B|----------------------------------------------------------------|
G|--4-------------------------------------------------------------|
D|--2-2-2-2-2-2-2-2-2-2-2-2-2-2-7---5-----------2---7-----------2-|
A|------------------------------5---3-3-3-3-3-3-0---5-5-5-5-5-5-0-|
E|----------------------------------------------------------------|

Refrain:

Guitar 1: (Play twice)
e|----------------------------------------------------------------|
B|----------------------------------------------------------------|
G|--4-----------------------------------------------------------4-|
D|--2--------------9--------------5--------------7--------------2-|
A|-----------------7--------------3--------------5----------------|
E|----------------------------------------------------------------|

                             |  (Play this the first time)  |
e|----------------------------------------------------------|
B|----------------------------------------------------------|
G|----------------------------------------------------------|
D|-------------9--------------5-------5-------9---5---7---2-|
A|-------------7--------------3---3-3-3---3-3-7---3---5---0-|
E|----------------------------------------------------------|

                             |  (and this the second time)  |
                           e|-------------------------------|
			   B|-------------------------------|
			   G|-------------------------------|
			   D|-5-----------------------------|
			   A|-3-3-3-3-3-3-3-3-3-------------|
			   E|-------------------------------|

Guitar 2: (Play twice)
e|----------------------------------------------------------------|
B|----------------------------------------------------------------|
G|--4-----------------------------------------------------------4-|
D|--2--------------9--------------5--------------7--------------2-|
A|-----------------7--------------3--------------5----------------|
E|----------------------------------------------------------------|

                             |  (Play this the first time)  |
e|----------------------------------------------------------|
B|----------------------------------------------------------|
G|----------------------------------------------------------|
D|-------------9--------------5---------------9---5---7---2-|
A|-------------7--------------3---------------7---3---5---0-|
E|----------------------------------------------------------|

                             |  (and this the second time)  |
                           e|-------------------------------|
			   B|-------------------------------|
			   G|-------------------------------|
			   D|-5-----------------------------|
			   A|-3-3-3-3-3-3-3-3-3-------------|
			   E|-------------------------------|

Interlude:

Guitar 1: (Play 4 times)
e|-------------------------------------------------------------------|
B|-------------------------------------------------------------------|
G|-------------------------------------------------------------------|
D|--4-2-2-2-2-2-2-2-4-2-2-2-2-2-2-2-4-2-2-2-2-2-2-2-5--4--2----------|
A|-----------------------------------------------------------5--3--5-|
E|-------------------------------------------------------------------|

Guitar 2: (Play 4 times)
e|-------------------------------------------------------------------|
B|-------------------------------------------------------------------|
G|-------------------------------------------------------------------|
D|--4---------------4---------------4---------------5--4--2----------|
A|-----------------------------------------------------------5--3--5-|
E|-------------------------------------------------------------------|

Solo 2:

Guitar 1:

Part 1:
e|-----------------------------------------------------------------|
B|-----------------------------------------------------------------|
G|-----------------------------------------------------------------|
D|--17---16---14------------------17-19p17h19p17-16---14-----------|
A|-----------------17---15---17----------------------------17---19-|
E|-----------------------------------------------------------------|

e|-----------------------------------------------|
B|-----------------------------------------------|
G|-----------------------------------------------|
D|-----------------------------------------------|
A|--17---15---12---15---17---19---17---15---12~--|
E|-----------------------------------------------|

e|----------------------------------------------------------------|
B|----------------------------------------------------------------|
G|----------------------------------------------------------------|
D|----------------------------------------------------------------|
A|-10-12-13-12-13-15-13-15-17-15-17-19-21-19-17-19-17-15-17-15-13-|
E|----------------------------------------------------------------|

e|-------------------------------------------------------|
B|-------------------------------------------------------|
G|-------------------------------------------------------|
D|-------------------------------------------------------|
A|15-13-12-13-12-10-12-10-9-10-9-7-9-7-5-7-5-3-5-3-------|
E|-------------------------------------------------5-3~--|

e|---------------------------------------------|
B|---------------------------------------------|
G|----------------------------------------7~---|
D|---------------------------------------------|
A|9-10-12-10-9-7-7-9-10-9-7-5-5-7-9-7-5-3------|
E|---------------------------------------------|

e|--------------------------|
B|--------------------------|
G|--------------------------|
D|7----7----3---5-----------|
A|------------------3---5~--|
E|--------------------------|

e|---------------------------------------------|
B|---------------------------------------------|
G|7-10-8-7h8p7-5-5-7-----------------2-4-5-7---|
D|-------------------5-3-5-3-5-7-9-7-----------|
A|---------------------------------------------|
E|---------------------------------------------|

e|-----------------------------|
B|-----------------------------|
G|-8-7---7---8-10---8---7---5--|
D|-----------------------------|
A|-----------------------------|
E|-----------------------------|

Part 2:
e|----------------------------------------------------------|
B|----------------------------------------------------------|
G|----------------------------------------------------------|
D|----------------------------------------------------------|
A|--21-----19h21p19-----------------------------------------|
E|------------------21----19---17--19----21---19----17---14-|

e|-----------------------------------------|
B|-----------------------------------------|
G|-----------------------------------------|
D|----19----17-----------------------------|
A|---------------19---17----15---12--------|
E|------------------------------------12---|

e|-------------------------------|
B|-------------------------------|
G|-------------------------------|
D|--12---14---16---17---19---21--|
A|-------------------------------|
E|-------------------------------|

e|-------------------------------------------------------|
B|-------------------------------------------------------|
G|---19--17-------------------------16---14--------------|
D|-----------21---19-----16---19---------------17---14---|
A|-------------------------------------------------------|
E|-------------------------------------------------------|

e|---------------------------------------|
B|---------------------------------------|
G|--21-----19---17---14-----12---10---12~|
D|---------------------------------------|
A|---------------------------------------|
E|---------------------------------------|

Guitar 2:

Part 1: (Play twice)
e|-----------------------------------------|
B|-----------------------------------------|
G|4----------------------------------------|
D|2----------------------------------------|
A|-----------------------------------------|
E|-----------------------------------------|

e|-----------------------------------------|
B|-----------------------------------------|
G|-----------------------------------------|
D|5----------------------------------------|
A|3----------------------------------------|
E|-----------------------------------------|

e|-----------------------------------------|
B|-----------------------------------------|
G|4----------------------------------------|
D|2----------------------------------------|
A|-----------------------------------------|
E|-----------------------------------------|

e|-----------------------------------------|
B|-----------------------------------------|
G|---------------------7-------------------|
D|5--------------------5----------7--------|
A|3-------------------------------5--------|
E|-----------------------------------------|

Part 2: (Play twice)
e|-------------------------------------------|
B|-------------------------------------------|
G|4------------------------------------------|
D|2-----------9-----------5-----------7------|
A|------------7-----------3-----------5------|
E|-------------------------------------------|

e|-------------------------------------------------------------|
B|-------------------------------------------------------------|
G|-----4-------------------------------------------------------|
D|-----2-----------9-----------5-------5-------9---5---7---2---|
A|-----------------7-----------3---3-3-3---3-3-7---3---5---0---|
E|-------------------------------------------------------------|

Refrain:

Guitar 1: (Play twice)
e|----------------------------------------------------------------|
B|----------------------------------------------------------------|
G|--4-----------------------------------------------------------4-|
D|--2--------------9--------------5--------------7--------------2-|
A|-----------------7--------------3--------------5----------------|
E|----------------------------------------------------------------|

                             |  (Play this the first time)  |
e|----------------------------------------------------------|
B|----------------------------------------------------------|
G|----------------------------------------------------------|
D|-------------9--------------5-------5-------9---5---7---2-|
A|-------------7--------------3---3-3-3---3-3-7---3---5---0-|
E|----------------------------------------------------------|

                             |  (and this the second time)  |
                           e|-------------------------------|
			   B|-------------------------------|
			   G|-------------------------------|
			   D|-5-----------------------------|
			   A|-3-3-3-3-3-3-3-3-3-------------|
			   E|-------------------------------|

Guitar 2: (Play twice)
e|----------------------------------------------------------------|
B|----------------------------------------------------------------|
G|--4-----------------------------------------------------------4-|
D|--2--------------9--------------5--------------7--------------2-|
A|-----------------7--------------3--------------5----------------|
E|----------------------------------------------------------------|

                             |  (Play this the first time)  |
e|----------------------------------------------------------|
B|----------------------------------------------------------|
G|----------------------------------------------------------|
D|-------------9--------------5---------------9---5---7---2-|
A|-------------7--------------3---------------7---3---5---0-|
E|----------------------------------------------------------|

                             |  (and this the second time)  |
                           e|-------------------------------|
			   B|-------------------------------|
			   G|-------------------------------|
			   D|-5-----------------------------|
			   A|-3-3-3-3-3-3-3-3-3-------------|
			   E|-------------------------------|

Intro again:

Guitar 1: (Play once)
e|------------------------------------------------------------------|
B|------------------------------------------------------------------|
G|------------------------------------------------------------------|
D|--2-2-2-2-2-2-2-2-2-2-2-2-2-2-0-0---------------------------------|
A|----------------------------------3-3-3-3-3-3-3-3-3-3-3-3-5-5-5-5-|
E|------------------------------------------------------------------|

e|----------------------------------------------------------------|
B|----------------------------------------------------------------|
G|----------------------------------------------------------------|
D|2-2-2-2-2-2-2-2-2-2-2-2-2-2-0-0-----------------5-5-5-5---------|
A|--------------------------------3-3-3-3-3-3-3-3---------5-5-5-5-|
E|----------------------------------------------------------------|

Guitar 2: (Play once)
e|------------------------------------------------------------------|
B|------------------------------------------------------------------|
G|--4---------------4-----------------------------------------------|
D|--2---------------2---------------5---------------5-------7-------|
A|----------------------------------3---------------3-------5-------|
E|------------------------------------------------------------------|

e|----------------------------------------------------------------|
B|----------------------------------------------------------------|
G|4---------------4-------------------------------7---------------|
D|2---------------2---------------5---------------5-------7-------|
A|--------------------------------3-----------------------5-------|
E|----------------------------------------------------------------|

Both guitars:
e|---------------------------------------------------------------|
B|---------------------------------------------------------------|
G|---------------------------------------------------------------|
D|---------------------------------------------------------------|
A|---0---3-----------0---------------0---3-----------0-----------|
E|-----------5---3-------2---3---0-----------5---3-------2---3---|

e|--------------------------------------------------------------|
B|--------------------------------------------------------------|
G|--------------------------------------------------------------|
D|----------------------------------2---5---2-------2-----------|
A|--0---3-----------0---------------------------5-------3---5---|
E|----------5---3-------1---3---0-------------------------------|

e|----------|
B|----------|
G|----------|
D|----------|
A|3---5-----|
E|----------|
comments
We did not receive enough feedback on this tab! Please rate:
1 2 3 4 5
I want to post or [tab]
guest
You may want to rate the tab now too:
select rating
Please do not post tabs as comments. Select "correction" instead!