Oops, an error
Loading. Please wait.

Raise Your Fist Tab

ver2
ver2

Whole song

Interactive

More versions @911Tabs.com
814 views 1 this week
no commentswrite comment
1 2 3 4 5
please rate
add to favorites launch autoscroll
font size
0
reset
Autoscroll
+/-
esc
set tempo
stop
Contributor
WARNING: You are trying to view
                                    content from Ultimate-Guitar.com
                                    in an unauthorized application,
                                    which is prohibited.

                                    Please use an official Ultimate
                                    Guitar Tabs application for iPhone,
                                    iPad or Android to access legitimate
                                    chords, guitar, bass, and drum tabs
                                    from Ultimate-Guitar.com database.

                                    Type "ultimate guitar tabs" in Apple
                                    App Store's or Android Market's
                                    search to find the application.
Running Wild
Raise your fist
Under Jolly Roger

v 1.0 April 2008


~ = vibrato or held note
h = hammer on
p = pull off
s = slide
T = tap
fb =  full bend
hb = half bend
fhb = full and a half bend
r = release bend
* = artificial harmonic


Raise your fist, a real classic pounder that ought to open every RW show!
Corrections, suggestions to beardedattacker@hotmail.com


(00:00) Figure A

e:---------------------------------------------|---------------------|
B:---------------------------------------------|---------------------|
G:o-----------------2--------------------------|-----------------2---|
D:o--4----2----4----0----4----2----4-----2--2--|--4----2----4----0---|
A:---2----0----2---------2----0----2--5--0--0--|--2----0----2--------|
E:------------------------------------3--------|---------------------|


e:-------------------------------------------------------------------|
B:-------------------------------------------------------------------|
G:------------------------------------------------------------------o|
D:---------2----2-4-2-0---------------------------------------------o|
A:----5----0---------------------------------------------------------|
E:----3--------------------------------------------------------------|



(00:30) Figure B

e:-------------------------------------------------------------------|
B:-------------------------------------------------------------------|
G:-------------------------------------------------------------------|
D:----9--7--4----------7--2--4--------------4-4-4-7------------------|
A:----7--5--2----------5--0--2--------------2-2-2-5------------------|
E:-------------------------------------------------------------------|


e:-------------------------------------------------------------------|
B:-------------------------------------------------------------------|
G:-------------------------------------------------------------------|
D:--2-0---4------------4-4-4-7---------------2-0---2--2--2--2--2--2--|
A:------2-2------------2-2-2-5-------------------2-0--0--0--0--0--0--|
E:-------------------------------------------------------------------|


e:-------------------------------------------------------------------|
B:-------------------------------------------------------------------|
G:-------------------------------------------------------------------|
D:--2--2-------------------2-----------------------------------------|
A:--0--0--4--4--4--4--5----0-----------------------------------------|
E:--------2--2--2--2--3----------------------------------------------|



(01:01) Figure C

e:-------------------------------------------------------------------|
B:-------------------------------------------------------------------|
G:o-----------------------------------------------------------------o|
D:o--4----7-----2----------4----------7----2------------------------o|
A:---2----5-----0--5--4----2----5-----5----0---5---------------------|
E:-----------------3--2---------3--------------3---------------------|



(03:03) Figure D

e:-------------------------------------------------------------------|
B:-------------------------------------------------------------------|
G:o--------4-2----------------------4-2-----------------------------o|
D:o--4--4------4-2-0-2-4-0--------------4-2-0-2-4-0---2-------------o|
A:---2--2------------------2--5--5------------------2-0--------------|
E:----------------------------3--3-----------------------------------|



(03:13) Figure E (lead Moti)

e:-------------------------------------------------------------------|
B:-----------------------------------------------15p12----12--15fb---|
G:---4---7---6-7-9-7---11--9-11-12-11--14-----14-------14------------|
D:-------------------------------------------------------------------|
A:-------------------------------------------------------------------|
E:-------------------------------------------------------------------|


e:---------17fb--19p17p14----14-17p14--19p17p14----14-17p14--17p14---|
B:---17fb-----------------17--------------------17-------------------|
G:-------------------------------------------------------------------|
D:-------------------------------------------------------------------|
A:-------------------------------------------------------------------|
E:-------------------------------------------------------------------|


e:-----14-15-17----14------------------------------------------------|
B:--17----------------17-17-19-17-17-15-14-14-15-14-14-15-14-15-14---|
G:-------------------------------------------------------------------|
D:-------------------------------------------------------------------|
A:-------------------------------------------------------------------|
E:-------------------------------------------------------------------|


e:------------|------------------------------------------------------|
B:--14-15-----|------------------------------------------------------|
G:--------14~-|---4---7---6-7-9---s7-9-11---s9-11-12---11-12-14-11---|
D:------------|------------------------------------------------------|
A:------------|------------------------------------------------------|
E:------------|------------------------------------------------------|


e:-------------------------------------------------------------------|
B:--------12-------14----12-12-14-12-14-14hb---14hb-14hb--12-14-14hb-|
G:--12-14----12-14----14---------------------------------------------|
D:-------------------------------------------------------------------|
A:-------------------------------------------------------------------|
E:-------------------------------------------------------------------|


e:-------------------------------------------------------------------|
B:--14hb-14fhb-----14hb-hbrp12-14hb-hbrp12-12------------------------|
G:-----------------------------------------14fb~~~-------------------|
D:-------------------------------------------------------------------|
A:-------------------------------------------------------------------|
E:-------------------------------------------------------------------|


e:-----------------------------7-------------------------------------|
B:--10fb-rp10-7-10p7----7-10p7---10p7----7-10p7----------------------|
G:-------------------10---------------10--------9-7--9-7-9-7---9p7---|
D:-----------------------------------------------------------9-------|
A:-------------------------------------------------------------------|
E:-------------------------------------------------------------------|


e:----------------------------------------|--------------------------|
B:---7------------------------------------|-----2-3p2---2-3-5-3p2----|
G:-----7h9p7-9p7-9p7--4-2-4---4-----------|---4-------4--------------|
D:----------------------------------------|--------------------------|
A:----------------------------------------|--------------------------|
E:----------------------------------------|--------------------------|


e:-------------------------------------------------------------------|
B:----3p2------------------------------------------------------------|
G:--4-----4-2-4-0-1-2-2*---------------------------------------------|
D:-----------------------4-5-4-2-4-4-4-4-4-4-------------------------|
A:-------------------------------------------5-5-4-4-5-5-4-4-5~~~----|
E:-------------------------------------------------------------------|


e:--14------------14-------------17----------------------------------|
B:-----17fb----------17-15-14-15----15-14-15----14-------12----------|
G:-------------------------------------------16-----14---14fb--------|
D:-------------------------------------------------------------------|
A:-------------------------------------------------------------------|
E:-------------------------------------------------------------------|


e:-------------------------------------------------------------22----|
B:--22fb-------22fbr-22p19-22-19-22-19---20p19-20p19-----19-22-------|
G:----------------------------------------------------21-------------|
D:-------------------------------------------------------------------|
A:-------------------------------------------------------------------|
E:-------------------------------------------------------------------|


e:-------------------------------------------------------------------|
B:--14h15p14----14-15fb--14hb~~~~~~----------------------------------|
G:-----------16------------------------------------------------------|
D:-------------------------------------------------------------------|
A:-------------------------------------------------------------------|
E:-------------------------------------------------------------------|



(03:13) Figure F 

e:-------------------------------------------------------------------|
B:-------------------------------------------------------------------|
G:o-------------------------------------------2----------------------|
D:o--4------------4------------4--------------0--2--4------------4---|
A:---2--2-2-2-2-2-2--2-2-2-2-2-2-2-2-2-2-2-2-----0--2--2-2-2-2-2-2---|
E:-------------------------------------------------------------------|


e:-------------------------------------------------------------------|
B:-------------------------------------------------------------------|
G:----------------------------2--------------------------------------|
D:-------------4--------------0--2-----------------------------------|
A:---2-2-2-2-2-2-2-2-2-2-2-2-----0--5------------5------------5------|
E:----------------------------------3--3-3-3-3-3-3--3-3-3-3-3-3-3-3--|


e:-------------------------------------------------------------------|
B:-------------------------------------------------------------------|
G:o-----------4-----------------------------------------------------o|
D:o-----------2--2--------------------------------------------------o|
A:---------------0---------------------------------------------------|
E:---3-3-3-3---------------------------------------------------------|



(04:41) Figure G

e:-------------------------------------------------------------------|
B:-------------------------------------------------------------------|
G:o-----4--2-----------------------------4--2------------------------|
D:o--4--------4--2--0--2--4--2--0--------------4--2--0--2--4--0------|
A:---2-----------------------------2--5--------------------------0---|
E:------------------------------------3------------------------------|



(04:51) Figure H (lead Moti)

e:-------------------------------------------------------------------|
B:-------------------------------------------------------------------|
G:---4--7--6-7*-7*-4--7--6-7--7------7--6-7-7----7--6-7-7---4--7*-6--|
D:--------------------------------5-----------7----------------------|
A:-------------------------------------------------------------------|
E:-------------------------------------------------------------------|


e:-------------------------------------------------------------------|
B:-------------------------------7----10T--12T--14T--15T--17T--19T---|
G:---7-7-4--7-6-7-7-9fb---12fb---9fb--(hold bend while tapping)------|
D:-------------------------------------------------------------------|
A:-------------------------------------------------------------------|
E:-------------------------------------------------------------------|
 
                               
e:--------------12~~bardown------------------------------------------|
B:---20fb------------------------------------------------------------|
G:-----------13--------------9~~--7-6-7-----7p6---6-7-9----7p6-7p6---|
D:--------------------------------------9-------9--------------------|
A:-------------------------------------------------------------------|
E:-------------------------------------------------------------------|


e:-----------------------------|---------------------------9p7----7--|
B:-----------------------------|----------7-10p7----7-10p7-----10----|
G:----6------------------------|---9fb-----------10------------------|
D:--9---7-9---7~~--------------|-------------------------------------|
A:-----------------------------|-------------------------------------|
E:-----------------------------|-------------------------------------|


e:--10-9p7h9p7----7---------------------7----------------------------|
B:-------------10---10-7-10p7----7h10p7---7h10p7-10--12-15p12----12--|
G:----------------------------10------------------------------14-----|
D:-------------------------------------------------------------------|
A:-------------------------------------------------------------------|
E:-------------------------------------------------------------------|


e:-------------------------------------------------------------------|
B:-15p12-17p12-15p12----12-15p12----12-14*hb-12-14p12-15-15-12-12-14-|
G:-------------------14----------14----------------------------------|
D:-------------------------------------------------------------------|
A:-------------------------------------------------------------------|
E:-------------------------------------------------------------------|


e:-------------------------------------------------------------------|
B:--14-12-12-15-12-12-14-14-12-12-15-15------------------------------|
G:--------------------------------------12-12-14-14-12-12-14-14-12---|
D:-------------------------------------------------------------------|
A:-------------------------------------------------------------------|
E:-------------------------------------------------------------------|


e:-------------------------------------------------------------------|
B:-------------------------------------------------------------------|
G:--11-12----11*---7fb~~~-------7--6-6-7-4---7--6-7-4---7-6-2-4--2---|
D:--------14---------------------------------------------------------|
A:-------------------------------------------------------------------|
E:-------------------------------------------------------------------|



comments
We did not receive enough feedback on this tab! Please rate:
print report bad tab
1 2 3 4 5
I want to post or [tab]
guest
You may want to rate the tab now too:
select rating
Please do not post tabs as comments. Select "correction" instead!