Oops, an error
Loading. Please wait.

Running Blood Tab

1,668 views 1 this week
no commentswrite comment
1 2 3 4 5
please rate
Autoscroll
+/-
esc
set tempo
stop
Contributor
Hey! There's an official Ultimate Guitar app which is ideal
for learning songs when you're away from computer. Get the app
WARNING: You are trying to view
                                    content from Ultimate-Guitar.com
                                    in an unauthorized application,
                                    which is prohibited.

                                    Please use an official Ultimate
                                    Guitar Tabs application for iPhone,
                                    iPad or Android to access legitimate
                                    chords, guitar, bass, and drum tabs
                                    from Ultimate-Guitar.com database.

                                    Type "ultimate guitar tabs" in Apple
                                    App Store's or Android Market's
                                    search to find the application.
Running Wild
Running Blood
Death or Glory

v 1.0 Feb 2008


~ = vibrato or held note
h = hammer on
p = pull off
s = slide
fb =  full bend
hb = half bend
r = release bend
* = artificial harmonic


Running Blood, another evidence on how well Rolf is able to match the 
music with the lyrics.
Corrections, suggestions to beardedattacker@hotmail.com



(00:00) Intro

e:--9------9-----10-----10------7------7------9------9------5--------|
B:-------------------------------------------------------------------|
G:-------------------------------------------------------------------|
D:-------------------------------------------------------------------|
A:-------------------------------------------------------------------|
E:-------------------------------------------------------------------|

e:-------------------------------------------------------------------|
B:-------------------------------------------------------------------|
G:----11-----11-----11-----11-----11-----11-----11-----11-----11-----|
D:-------------------------------------------------------------------|
A:--9----9-9----9-9----9-9----9-9----9-9----9-9----9-9----9-9--------|
E:-------------------------------------------------------------------|


e:---5------7------7-------5-----------4--2--------------------------|
B:----------------------------------6-----2--------------------------|
G:-------------------------------------------------------------------|
D:-------------------------------------------4-----------------------|
A:-------------------------------------------------------------------|
E:-------------------------------------------------------------------|
 |                                                                   |
e:-------------------------------------------------------------------|
B:-------------------------------------------------------------------|
G:------11-----11-----11-----11--------------------------------------|
D:-------------------------------------------------------------------|
A:--9-9----9-9----9-9----9-9----9-9----------------------------------|
E:-------------------------------------------------------------------|



(00:14)

e:-------------------------------------------------------------------|
B:--14~~-----14~~--14-15~~-----15~~--15-12~~----12~-14-15-14~--------|
G:-------------------------------------------------------------------|
D:-------------------------------------------------------------------|
A:-------------------------------------------------------------------|
E:-------------------------------------------------------------------|
 |                                                                   |
e:-------------------------------------------------------------------|
B:-------------------------------------------------------------------|
G:-------------------------------------------------------------------|
D:------4--------4--------4--------4--------4--------4--------4------|
A:----4--------4--------4--------4--------4--------4--------4--------|
E:--2--------2--------2--------2--------2--------2--------2----------|


e:-------------------------------------------------------------------|
B:--14~~14-12-10~~-----10~~-----10-12~~-----12~~---12-10~-10-9-10-9--|
G:-------------------------------------------------------------------|
D:-------------------------------------------------------------------|
A:-------------------------------------------------------------------|
E:-------------------------------------------------------------------|
 |                                                                   |
e:-------------------------------------------------------------------|
B:-------------------------------------------------------------------|
G:-------------------------------------------------------------------|
D:------4--------4--------4--------4--------4--------4--------4------|
A:----4--------4--------4--------4--------4--------4--------4--------|
E:--2--------2--------2--------2--------2--------2--------2----------|


e:-------------------------------------------------------------------|
B:--7~---------------------------------------------------------------|
G:-------------------------------------------------------------------|
D:-------------------------------------------------------------------|
A:-------------------------------------------------------------------|
E:-------------------------------------------------------------------|
 |                                                                   |
e:-------------------------------------------------------------------|
B:-------------------------------------------------------------------|
G:-------------------------------------------------------------------|
D:--4----------------------------------------------------------------|
A:--4----------------------------------------------------------------|
E:--2----------------------------------------------------------------|



(00:27) (rythm pattern continue)

e:--14~~-14~~--14-16-17-16h17p16-14--14-14----16-18----16-14~--14~~--|
B:-----------------------------------------17-------17---------------|
G:-------------------------------------------------------------------|
D:-------------------------------------------------------------------|
A:-------------------------------------------------------------------|
E:-------------------------------------------------------------------|


e:--14---------------------------------------------------------------|
B:------14~~-14~~-14-15-17-19~--17-14~-------------------------------|
G:-------------------------------------16-14-13h14p13--14p13---------|
D:-----------------------------------------------------------16~~----|
A:-------------------------------------------------------------------|
E:-------------------------------------------------------------------|



(00:42) Fade in on F#

(00:46) Figure A

e:-------------------------------------------------------------------|
B:-------------------------------------------------------------------|
G:--------------------------------------4----------------------------|
D:---------2---2-----------------4--2---2-2-------4-2---2------------|
A:--4-4------4---4-2-4-2-0--4-4-------4---0--4-4------4---4-2-4-2-0--|
E:--2-2--2------------------2-2--------------2-2---------------------|
 |                                                                   |
e:-------------------------------------------------------------------|
B:-------------------------------------------------------------------|
G:--------------------------------------4----------------------------|
D:---------2---2-----------------4--2---2-2-------4-2---2------------|
A:--4-4--4---4---4-2-4-2-0--4-4-------4---0--4-4------4---4-2-4-2-0--|
E:--2-2---------------------2-2--------------2-2---------------------|


e:-------------------------------------------------------------------|
B:-------------------------------------------------------------------|
G:----------------------------------------------------------4--------|
D:-----------2-----------------2---2-----------------4--2---2-2------|
A:--2--------0--2--2----4-4------4---4-2-4-2-0--4-4-------4---0--4-4-|
E:--0-0-0-0-----0--0----2-2--2------------------2-2--------------2-2-|
 |                                                                   |
e:-------------------------------------------------------------------|
B:-------------------------------------------------------------------|
G:----------------------------------------------------------4--------|
D:-----------2---------------4-2---2-----------------4--2---2-2------|
A:--2--------0--2--2----4-4------4---4-2-4-2-0--4-4-------4---0--4-4-|
E:--0-0-0-0-----0--0----2-2---------------------2-2--------------2-2-|


e:-------------------------------------------------------------------|
B:-------------------------------------------------------------------|
G:-------------------------------------------------------------------|
D:-----2---2---------------------2-----------------2---2-------------|
A:-------4---4-2-4-2-0--2--------0--2--2----4-4------4---4-2-4-2-0---|
E:---2------------------0-0-0-0-----0--0----2-2--2-------------------|
 |                                                                   |
e:-------------------------------------------------------------------|
B:-------------------------------------------------------------------|
G:-------------------------------------------------------------------|
D:---4-2---2---------------------------------------2---2-------------|
A:-------4---4-2-4-2-0--2-------2h-4--2-----4-4--4---4---4-2-4-2-0---|
E:----------------------0-0-0-0-------0-----2-2----------------------|


e:-------------------------------------------------------------------|
B:-------------------------------------------------------------------|
G:--------------4----------------------------------------------------|
D:-------4--2---2-2---------2---2---------------------2--------------|
A:--4-4-------4---0--4-4------4---4-2-4-2-0--2--------0--2--2----4-4-|
E:--2-2--------------2-2--2------------------0-0-0-0-----0--0----2-2-|
 |                                                                   |
e:-------------------------------------------------------------------|
B:-------------------------------------------------------------------|
G:--------------4----------------------------------------------------|
D:-------4--2---2-2-------4-2---2---------------------2--------------|
A:--4-4-------4---0--4-4------4---4-2-4-2----2--------0--2--2----4-4-|
E:--2-2--------------2-2---------------------0-0-0-0-----0--0----2-2-|


e:-------------------------------------------------------------------|
B:-------------------------------------------------------------------|
G:---------------------------------4---------------------------------|
D:--4-2---2-----------------4--2---2-2-------4-2---2-----------------|
A:------4---4-2-4-2-0--4-4-------4---0--4-4------4---4-2-4-2-0--2----|
E:---------------------2-2--------------2-2---------------------0-0--|
 |                                                                   |
e:-------------------------------------------------------------------|
B:-------------------------------------------------------------------|
G:---------------------------------4---------------------------------|
D:--4-2---2-----------------4--2---2-2-------4-2---2-----------------|
A:------4---4-2-4-2-0--4-4-------4---0--4-4------4---4-2-4-2-0--2----|
E:---------------------2-2--------------2-2---------------------0-0--|


e:-------------------------------------------------------------------|
B:-------------------------------------------------------------------|
G:-------------------------------------------------------------------|
D:-------2-----------------------------------------------------------|
A:-------0--2--2-----------------------------------------------------|
E:--0-0-----0--0-----------------------------------------------------|
 |                                                                   |
e:-------------------------------------------------------------------|
B:-------------------------------------------------------------------|
G:-------------------------------------------------------------------|
D:-------2-----------------------------------------------------------|
A:-------0--2--2-----------------------------------------------------|
E:--0-0-----0--0-----------------------------------------------------|



(01:10) Figure B

e:-------------------------------------------------------------------|
B:-------------------------------------------------------------------|
G:o--------2-----------2-----------2-----4-2-4p2p0------------2------|
D:o--4-2-4---4-2-4-2-4---4-2-4-2-4---4-2-----------4-2--0-2-4---4-2--|
A:-------------------------------------------------------------------|
E:-------------------------------------------------------------------|
 |                                                                   |
e:-------------------------------------------------------------------|
B:-------------------------------------------------------------------|
G:o------------------------------------------------------------------|
D:o--------------------------2-----4-----2--------------7------------|
A:---4-----------4-----------0-----2-----0-----2--------5--5--5--5---|
E:---2--2--2--2--2--2--2--2--------------------0---------------------|


e:-------------------------------------------------------------------|
B:-------------------------------------------------------------------|
G:--------2-----------2---------------------------------------------o|
D:--0-2-4---4-2-0-2-4---4-2--2--4-----------------------------------o|
A:---------------------------0--2------------------------------------|
E:-------------------------------------------------------------------|
|                                                                    |
e:-------------------------------------------------------------------|
B:-------------------------------------------------------------------|
G:------------------------------------------------------------------o|
D:--7-----------7------------2--4-----------------------------------o|
A:--5--5--5--5--5--5--5--5---0--2------------------------------------|
E:-------------------------------------------------------------------|



(01:22) Figure C

e:-------------------------------------------------------------------|
B:-------------------------------------------------------------------|
G:o-------------2------------2------------------2------------2------o|
D:o-------2-----0----2-4-2-4---4-2-4------2-----0----2-4-2-4---4-2--o|
A:---4----0-4--------0-2-------------4----0-4--------0-2----------4--|
E:---2------2------------------------2------2------------------------|
 |                                                                   |
e:-------------------------------------------------------------------|
B:---------------------------3-------------------------------3-------|
G:o-------------2--------2-4---4-2--------------2--------2-4---4-2--o|
D:o-------2-----0----2-4-----------4------2-----0----2-4----------4-o|
A:---4----0-4--------0-2-------------4----0-4--------0-2-------------|
E:---2------2------------------------2------2------------------------|



(01:46) Figure D

e:-------------------------------------------------------------------|
B:-------------------------------------------------------------------|
G:-------------------------------------------------------------------|
D:---7---------7---------7---------7-------------------4-------------|
A:---5--5-5-5--5--5-5-5--5--5-5-5--5--5-5-5--4-4-4-2-4---4p3p2-0-2-4-|
E:-------------------------------------------2-2---------------------|


e:-------------------------------------------------------------------|
B:-------------------------------------------------------------------|
G:-------------------------------------------------------------------|
D:------------4------------7---------7---------7---------7-----------|
A:--4-4-4-2-4---4-2-0-2-4--5--5-5-5--5--5-5-5--5--5-5-5--5--5-5-5----|
E:--2-2--------------------------------------------------------------|

e:-------------------------------------------------------------------|
B:-------------------------------------------------------------------|
G:-------------------------------------------------------------------|
D:--2-------------6--------------------------------------------------|
A:--0--------2----4--------------------------------------------------|
E:-----------0-------------------------------------------------------|



(02:10) Figure E (lead, Rolf) with Rythm figure A

e:-------------------------------------------------------------------|
B:-------------------------------------------------------------------|
G:-------------------------------------------------------------------|
D:---------------2-----------------------------------2*-4*~----------|
A:---4*~~--2h4p2---4~--4-4p2p0------2*-4*-2*-------4*----------------|
E:-----------------------------5-5*----------5*-2*-------------------|


e:---12-9-12---------------------------------------------------------|
B:-----------12-9-----12-9-------------------------------------------|
G:-------------------------9-11-8------------------------------------|
D:-----------------9--------------9---11-9----11h14p11~-9h11p9-------|
A:-----------------------------------------11------------------11-9--|
E:-------------------------------------------------------------------|


e:---------------------|--16-19-16-19fb-fb-fb-fb-21fb-21fb-21fb-21fb-|
B:---------------------|---------------------------------------------|
G:---------------------|---------------------------------------------|
D:---------------------|---------------------------------------------|
A:------9h11p9---------|---------------------------------------------|
E:--12---------12-7-9~-|---------------------------------------------|


e:---19-16------------------------------|--19-16---------------------|
B:---------19-17-16h17----16------------|--------17------------------|
G:---------------------18----16-18~~----|-----------18-16------------|
D:--------------------------------------|-----------------18---------|
A:--------------------------------------|----------------------------|
E:--------------------------------------|----------------------------|


e:-------------------------------------------------------------------|
B:-------------------------------------------------------------------|
G:----9-11-11fbr-11-9----9-11-11fbr-11-9-11~~------------------------|
D:--9-----------------11-------------------------2-4-2-4hbf~~--------|
A:-------------------------------------------------------------------|
E:-------------------------------------------------------------------|



(02:34) Figure F 

e:-------------------------------------------------------------------|
B:-------------------------------------------------------------------|
G:---------------11-9--------------9-11-------------------4-2--------|
D:---4-4-4-7-4--------11-9----9-11-------7--7-7-7-7-9-2-------4-2----|
A:-------------------------12------------5--5-5-5-5-7-0-----------4--|
E:-------------------------------------------------------------------|
 |                                                                   |
e:-------------------------------------------------------------------|
B:-------------------------------------------------------------------|
G:---------------11-9--------------9-11-------------------4-2--------|
D:---4-4-4-7-4--------11-9----9-11------(harmonics)-9-2-------4-2----|
A:-------------------------12------------0--0-0-0-0-7-0-----------4--|
E:-------------------------------------------------------------------|


e:-------------------------------------------------------------------|
B:-------------------------------------------------------------------|
G:-------------------------------------------------------------------|
D:-------------------------------------------------------------------|
A:--2-0-2-4-2--------------------------------------------------------|
E:-------------------------------------------------------------------|
 |                                                                   |
e:-------------------------------------------------------------------|
B:-------------------------------------------------------------------|
G:-------------------------------------------------------------------|
D:-------------------------------------------------------------------|
A:--2-0-2-4-2--------------------------------------------------------|
E:-------------------------------------------------------------------|



(04:08) outro

e:--9------9-----10-----10------7------7------9------9------5--------|
B:-------------------------------------------------------------------|
G:-------------------------------------------------------------------|
D:-------------------------------------------------------------------|
A:-------------------------------------------------------------------|
E:-------------------------------------------------------------------|

e:-------------------------------------------------------------------|
B:-------------------------------------------------------------------|
G:----11-----11-----11-----11-----11-----11-----11-----11-----11-----|
D:-------------------------------------------------------------------|
A:--9----9-9----9-9----9-9----9-9----9-9----9-9----9-9----9-9--------|
E:-------------------------------------------------------------------|


e:---5------7------7-------5-----------4--2--------------------------|
B:----------------------------------6-----2--------------------------|
G:-------------------------------------------------------------------|
D:------------------------------------------4------------------------|
A:-------------------------------------------------------------------|
E:-------------------------------------------------------------------|
 |                                                                   |
e:-------------------------------------------------------------------|
B:-------------------------------------------------------------------|
G:------11-----11-----11-----11--------------------------------------|
D:-------------------------------------------------------------------|
A:--9-9----9-9----9-9----9-9----9-9----------------------------------|
E:-------------------------------------------------------------------|



Rythm figure A

e:-------------------------------------------------------------------|
B:-------------------------------------------------------------------|
G:-------------------------------------------------------------------|
D:---6--------9--6--------2------------------------------------------|
A:---4--------7--4--------0----4-------------------------------------|
E:-----------------------------2-------------------------------------|
comments
We did not receive enough feedback on this tab! Please rate:
print report bad tab
1 2 3 4 5
I want to post or [tab]
guest
You may want to rate the tab now too:
select rating
Please do not post tabs as comments. Select "correction" instead!