Oops, an error
Loading. Please wait.

Stortebeker Tab

240 views 1 this week
no commentswrite comment
1 2 3 4 5
please rate
Autoscroll
+/-
esc
set tempo
stop
Contributor
Hey! There's an official Ultimate Guitar app which is ideal
for learning songs when you're away from computer. Get the app
WARNING: You are trying to view
                                    content from Ultimate-Guitar.com
                                    in an unauthorized application,
                                    which is prohibited.

                                    Please use an official Ultimate
                                    Guitar Tabs application for iPhone,
                                    iPad or Android to access legitimate
                                    chords, guitar, bass, and drum tabs
                                    from Ultimate-Guitar.com database.

                                    Type "ultimate guitar tabs" in Apple
                                    App Store's or Android Market's
                                    search to find the application.
Running Wild
Störtebeker
Wild Animal

Version 1.1 May 2008

Edit: some minor glitches fixed and solo now correct

~ = vibrato or held note
h = hammer on
p = pull off
s = slide
T = tap
fb =  full bend
hb = half bend
fhb = full and a half bend
r = release bend
* = artificial harmonic
( ) = picking a bent note


Klaus Störtebeker (1360 – 1401) was a german privateer of the Vitalien-
brüder fellowship operating in the Baltic Sea. His name is a nickname 
from Old German meaning "empty the mug with one gulp," just as referred 
to in the first verse.
Corrections, suggestions to beardedattacker@hotmail.com



(00:00) Figure A

e:-------------------------------------------------------------------|
B:------3h5p3------------------3h5p3----------------------3h5p3------|
G:------------5-4--5-7-4-------------5-4--5-7-5-4---4-----------5-4--|
D:-----------------------5------------------------5------------------|
A:---0----------------------0--------------------------0-------------|
E:-------------------------------------------------------------------|


e:-------------------------------------------------------------------|
B:--------------3h5p3------------------------3h5p3-------------------|
G:--5-7-4-------------5-4--5-7-5-4---4-------------5-4--5-7-4--------|
D:--------5------------------------5------0-------------------5--0---|
A:-----------0-------------------------------------------------------|
E:-------------------------------------------------------------------|


e:-------------------------------------------------------------------|
B:--3h5p3----------------------3h5p3------------------3h5p3----------|
G:--------5-4--5-7-5-4---4-----------5-4--5-7-4-------------5-4--5-7-|
D:---------------------5------------------------5--------------------|
A:--------------------------0----------------------0-----------------|
E:-------------------------------------------------------------------|


e:-------------------------------------------------------------------|
B:--------------3h5p3------------------3h5p3-------------------------|
G:--5-4---4-----------5-4--5-7-4-------------5-4--5-7-5-4---4--------|
D:------5----3-------------------5--2---------------------5----------|
A:-------------------------------------------------------------------|
E:-------------------------------------------------------------------|


e:--------------0----------------------------------------------------|
B:-----------1-----1-------------------------------------------------|
G:--------2-----------2----------------------------------------------|
D:-----2-------------------------------------------------------------|
A:--0----------------------------------------------------------------|
E:-------------------------------------------------------------------|



(00:37) Figure B

e:-------------------------------------------------------------------|
B:-------------------------------------------------------------------|
G:-------------------------------------------------------------------|
D:-------------3---------------------------------------3-------------|
A:---0-0-5-3-0---5-3-0-3-5----------5p3------0-0-5-3-0---5-3-0-3-5---|
E:-------------------------1--1-1-1-----5p3--------------------------|


e:-------------------------------------------------------------------|
B:-------------------------------------------------------------------|
G:--5----5--7--------------------------------------------------------|
D:--3----3--5------------3---------------------------------------3---|
A:-------------0-0-5-3-0---5-3-0-3-5----------5p3------0-0-5-3-0---5-|
E:-----------------------------------1--1-1-1-----5p3----------------|


e:-------------------------------------------------------------------|
B:-------------------------------------------------------------------|
G:-----------5-------9--7--------------------------------------------|
D:-----------3-3-3-3-7--5--------------------------------------------|
A:--3-0-3-5----------------------------------------------------------|
E:-------------------------------------------------------------------|



(00:47) Figure C

e:-------------------------------------------------------------------|
B:-------------------------------------------------------------------|
G:---------------------------------------5---------------------------|
D:---------5-5-7-------5-5-7-------5-5-7---7-5---5-7-----------------|
A:---5-5-7-------5-5-7-------5-5-7-------------7---------------------|
E:-------------------------------------------------------------------|


e:-------------------------------------------------------------------|
B:-------------------------------------------------------------------|
G:---------------------------5---------------------------------------|
D:------------5-----------5--3--5--7---------------------------------|
A:--------5-7---------5-7-------3--5--5------------------------------|
E:--5-5-8-------5-5-8-----------------3------------------------------|


e:-------------------------------------------------------------------|
B:-------------------------------------------------------------------|
G:---------------------------------------5---------------------------|
D:---------5-5-7-------5-5-7-------5-5-7---7-5---5-7-----------------|
A:---5-5-7-------5-5-7-------5-5-7-------------7---------------------|
E:-------------------------------------------------------------------|


e:-------------------------------------------------------------------|
B:-------------------------------------------------------------------|
G:---------------------------5---------------------------------------|
D:------------5-----------5--3--5--7---------------------------------|
A:--------5-7---------5-7-------3--5---------------------------------|
E:--5-5-8-------5-5-8------------------------------------------------|



(00:58) Figure D

e:-------------------------------------------------------------------|
B:-------------------------------------------------------------------|
G:o------------------------------------------------------------------|
D:o--------5-5-7-------5-5-7-------5-5-7--5-5-5--------5-5-7---------|
A:---5-5-7-------5-5-7-------5-5-7--------3-3-3--5-5-7-------5-5-7---|
E:-------------------------------------------------------------------|


e:-------------------------------------------------------------------|
B:-------------------------------------------------------------------|
G:-------------------------------------------------------------------|
D:--5-5-7--7---------------5-5-7-------5-5-7-------5-5-7--5-5-5------|
A:---------5--3--5---5-5-7-------5-5-7-------5-5-7--------3-3-3------|
E:------------1--3---------------------------------------------------|


e:-------------------------------------------------------------------|
B:-------------------------------------------------------------------|
G:---------------------------5--------------------------------------o|
D:--------5-5-7-------5-5-7--3--5--7--------------------------------o|
A:--5-5-7-------5-5-7-----------3--5--5------------------------------|
E:------------------------------------3------------------------------|



(01:20) Figure E

e:-------------------------------------------------------------------|
B:-------------------------------------------------------------------|
G:----------------------------4--2-----------------------------------|
D:---5--------5-----2---------2--0--2--5--------5-----2--------------|
A:---3--3-3-3-3--5--0--0-0-0--------0--3--3-3-3-3--5--0--0-0-0-------|
E:---------------3---------------------------------3-----------3*----|

                                                      used in 1+3 pre-
                                                      chorus only
e:---------------------------------------------------|---------------|
B:---------------------------------------------------|---------------|
G:---------------------------4--2--------------------|---------------|
D:--5--------5-----2---------2--0--2--5--------5-----|-----5---------|
A:--3--3-3-3-3--5--0--0-0-0--------0--3--3-3-3-3--5--|-5-7---3-5-----|
E:--------------3---------------------------------3--|-----------3---|



(01:30) Figure F

e:-------------------------------------------------------------------|
B:-------------------------------------------------------------------|
G:-------------------------------------------------------------------|
D:--2----5-----2---------7--5-------2----5-----2----3----7--5--------|
A:--0----3--5--0----3----5--3--5----0----3--5--0----3----5--3--5-----|
E:----------3-------1----------3------------3------------------3-----|



(01:41) Figure G

e:-------------------------------------------------------------------|
B:-------------------------------------------------------------------|
G:-------------------------------------------------------------------|
D:-------------3---------------------------------------3-------------|
A:---0-0-5-3-0---5-3-0-3-5----------5-3------0-0-5-3-0---5-3-0-3-5---|
E:-------------------------1--1-1-1-----5-3--------------------------|


e:-------------------------------------------------------------------|
B:-------------------------------------------------------------------|
G:--5----5--7--------------------------------------------------------|
D:--3----3--5--------------------------------------------------------|
A:-------------------------------------------------------------------|
E:-------------------------------------------------------------------|



(02:17) Figure H

e:-------------------------------------------------------------------|
B:-------------------------------------------------------------------|
G:o----------------------------7--5-----5----------------------------|
D:o--------3------------3-3-5--5--3--5--3-------------------------7--|
A:---5-5-5---5-5--5-5-5-----3--------3-----0-0-0-3-0-0--0-0-0-3-3-5--|
E:-------------------------------------------------------------------|


e:-------------------------------------------------------------------|
B:-------------------------------------------------------------------|
G:-----5------------------------------------------------------------o|
D:--7--3-5----------------------------------------------------------o|
A:--5----3-----------------------------------------------------------|
E:-------------------------------------------------------------------|



(02:26) Figure I (lead Moti)

e:----------------------------s-19hb---------------------------------|
B:--22-dive-gently-with-bar------------------------------------------|
G:-------------------------------------------------------------------|
D:-------------------------------------------------------------------|
A:-------------------------------------------------------------------|
E:-------------------------------------------------------------------|
 

e:-------------------------------------------------------------------|
B:-------------------------------------------------------------------|
G:---------9------------9------7p5---5-7p5-9p5----------7fb--(9)-(9)-|
D:---7-7-7---7-7-10p7-7---7-7------7-----------7---7-----------------|
A:-----------------------------------------------7---7---------------|
E:-------------------------------------------------------------------|


e:--------------------------------|----------------------------------|
B:--------------------------------|-s17-17-17-18p17----17h18p17-20p--|
G:--(9)-(9)-(9)-5-7p5--7--5--7fbr-|-----------------19---------------|
D:--------------------------------|----------------------------------|
A:--------------------------------|----------------------------------|
E:--------------------------------|----------------------------------|


e:-------------------------------------------------------------------|
B:--17-18p17----17------------------------------------s20---22---24--|
G:-----------19----19fbrp17-19-17-19-16hb-(17)--19-17----------------|
D:-------------------------------------------------------------------|
A:-------------------------------------------------------------------|
E:-------------------------------------------------------------------|


e:-------|--------12--15p12------------------------------------------|
B:--24hb-|-----13-----------13---------------------------------------|
G:-------|--14-----------------14~----14-12--14p12-10-9--10p9--------|
D:-------|----------------------------------------------------10~----|
A:-------|-----------------------------------------------------------|
E:-------|-----------------------------------------------------------|

 
e:----------------------------|--------------------------------------|
B:----------------------------|------------------------------5-----5-|
G:--------9h10p9--------------|--5p4---4-----4-5---4-5-7-5-7---5-7---|
D:--10-12--------12-10-9-10~--|------7---5-7-----7-------------------|
A:----------------------------|--------------------------------------|
E:----------------------------|--------------------------------------|
 

e:-------------------------------------------------------------------|
B:--6---5-6-8-5-6---5------------------------------------------------|
G:----7-----------7---5-7-4-5-4-5---4--------------------------------|
D:--------------------------------7---5-7-3-5-2-3p2p0-2p0------------|
A:--------------------------------------------------------3-0~~------|
E:-------------------------------------------------------------------|



(02:27) Figure J

e:-------------------------------------------------------------------|
B:-------------------------------------------------------------------|
G:o------------------------------------------------------------------|
D:o--------------------------------------------------5-----------5---|
A:---0-0-0-3-0-0-5-0-0-7-0-0-8-0-0-7-0-0-5-0-0-3-0-0-3-3-3-3-3-3-3---|
E:-------------------------------------------------------------------|

e:-------------------------------------------------------------------|
B:-------------------------------------------------------------------|
G:----7-------7-----------------------------------------------------o|
D:--7-5-5-5-5-5-5-5-5-----------------------------------------------o|
A:--5----------------------------------------------------------------|
E:-------------------------------------------------------------------|



(02:49)

e:-------------------------------------------------------------------|
B:-------------------------------------------------------------------|
G:-------------------------------------------------------------------|
D:-------------3---------------------------------------3-------------|
A:---0-0-5-3-0---5-3-0-3-5----------5p3------0-0-5-3-0---5-3-0-3-5---|
E:-------------------------1--1-1-1-----5p3--------------------------|


e:-------------------------------------------------------------------|
B:-------------------------------------------------------------------|
G:--5-------9--7-----------------------------------------------------|
D:--3-3-3-3-7--5------------3----------------------------------------|
A:----------------0-0-5-3-0---5-3-0-3-5----------5p3------0-0-5-3-0--|
E:--------------------------------------1--1-1-1-----5p3-------------|


e:-------------------------------------------------------------------|
B:-------------------------------------------------------------------|
G:--------------5-------5--7-----------------------------------------|
D:--3-----------3-3-3-3-3--5-----------------------------------------|
A:----5-3-0-3-5------------------------------------------------------|
E:-------------------------------------------------------------------|

comments
We did not receive enough feedback on this tab! Please rate:
print report bad tab
1 2 3 4 5
I want to post or [tab]
guest
You may want to rate the tab now too:
select rating
Please do not post tabs as comments. Select "correction" instead!