Oops, an error
Loading. Please wait.

The Battle Of Waterloo Tab

ver1
ver1

Whole song

Interactive

More versions @911Tabs.com
7,013 views 3 this week
1 commentread comment
1 2 3 4 5
worth learning
x 2
Autoscroll
+/-
esc
set tempo
stop
Contributor
Hey! There's an official Ultimate Guitar app which is ideal
for learning songs when you're away from computer. Get the app
WARNING: You are trying to view
                                    content from Ultimate-Guitar.com
                                    in an unauthorized application,
                                    which is prohibited.

                                    Please use an official Ultimate
                                    Guitar Tabs application for iPhone,
                                    iPad or Android to access legitimate
                                    chords, guitar, bass, and drum tabs
                                    from Ultimate-Guitar.com database.

                                    Type "ultimate guitar tabs" in Apple
                                    App Store's or Android Market's
                                    search to find the application.
Running Wild
Battle of Waterloo
Death or glory

Version 1.0 May 2008


 h   - hammer-on
 p   - pull-off
 fb  - full bend
 hb  - half bend
 r   - bend release
 /\  - slide into or out of (from/to "nowhere")
 s   - legato slide
  - natural harmonic
[n]  - artificial harmonic
 ~   - vibrato
 tr  - trill
 T   - tap
(n)  - ghost note


This piece is ridiculously melodic, just oozing of "rolfianisms" =)
Corrections, suggestions to beardedattacker@hotmail.com



(00:54) Figure A

e:-------------------------------------------------------------------|
B:-------------------------------------------------------------------|
G:----------------2h4p2h4-4s6-4-2-4-2-----------------2h4p2-4-4s6-4-2|
D:---4--4-4-4-4-4---------------------2--4--4-4-4-4-4----------------|
A:-------------------------------------------------------------------|
E:-------------------------------------------------------------------|


e:-------------------------------------------------------------------|
B:--------------------------------------5-2---------------------7----|
G:----------------------2h4p2-4-4s6-4-2-----4---2-2-2-2-2-2-4-6------|
D:--[2]--2-4--4-4-4-4-4----------------------------------------------|
A:-------------------------------------------------------------------|
E:-------------------------------------------------------------------|


e:-------------------------------------------------------------------|
B:-------------------------------------------------------------------|
G:--6-4---4-6--------------------------------------------------------|
D:------7------------------------------------------------------------|
A:-------------------------------------------------------------------|
E:-------------------------------------------------------------------|



(01:03) Figure B

e:-------------------------------------------------------------------|
B:-------------------------------------------------------------------|
G:-------------------------------------------------------------------|
D:---------------------------------2--2-2-2----------------------2---|
A:---4--4-4-4--4--4-4-4--4--4-4-4--0--0-0-0--4--4-4-4--4--4-4-4--0---|
E:---2--2-2-2--2--2-2-2--2--2-2-2------------2--2-2-2--2--2-2-2------|


e:-------------------------------------------------------------------|
B:-------------------------------------------------------------------|
G:-------------------------------------------------------------------|
D:--2-2-2-[2]-------------------------------6--2--2-2-2--2--2-2-2----|
A:--0-0-0-----4--4-4-4--4--4-4-4--4--4-4-4--4--0--0-0-0--0--0-0-0----|
E:------------2--2-2-2--2--2-2-2--2--2-2-2---------------------------|


e:-------------------------------------------------------------------|
B:-------------------------------------------------------------------|
G:-------------------------------------------------------------------|
D:--4-------2--------------------------------------------------------|
A:--2-2-2-2-0-0-0-0--------------------------------------------------|
E:------------------0------------------------------------------------|



(01:20) Figure C

e:-------------------------------------------------------------------|
B:-------------------------------------------------------------------|
G:-------------------------------------------------------------------|
D:-------------------------------------------------------------------|
A:--(4)----4-----2-----0------2-----0---------------------4-----2----|
E:---2-2-2---2-2---2-2----2-2---2-2---2-2-4--4-5-0--2-2-2---2-2---2--|


e:-------------------------------------------------------------------|
B:-------------------------------------------------------------------|
G:-------------------------------------------------------------------|
D:-------2------2----------------------------------------------------|
A:-----0-0--2-4---[4]-[2]-[0]-[2]-[4]--------------------------------|
E:--2----------------------------------------------------------------|



(01:55) Figure D

e:-------------------------------------------------------------------|
B:-------------------------------------------------------------------|
G:---4---------s6--------------------------4---------s-6-2-2-1-1-2-2-|
D:---2-2-2-2-2-s4--------------------------2-2-2-2-2-s-4-------------|
A:----------------2-2-0-0-2-2-4-4-2-2--------------------------------|
E:------------------------------------2-2----------------------------|


e:-------------------------------------------------------------------|
B:-------------------------------------------------------------------|
G:-2--4---------s-6--------------------------------------------------|
D:-0--2-2-2-2-2-s-4-------------------------------------4-4-2-2------|
A:------------------2-2-0-0-2-2-4-4-2-2-------------------------4-4--|
E:--------------------------------------2-2-0-0-0-0-0-0--------------|


e:-------------------------------------------------------------------|
B:-------------------------------------------------------------------|
G:-------------------------------------------------------------------|
D:-------------------------------------------------------------------|
A:--4-4-4-4-2-0------------------------------------------------------|
E:-------------------------------------------------------------------|



(02:31) Figure E

e:-------------------------------------------------------------------|
B:-------------------------------------------------------------------|
G:--------4s6-----------------------4--------4s6---------------4-----|
D:--------2s4-2---------2---2-6s4-2-2--------2s4-2---------2---2-6s4-|
A:--4---------0-4---2-4-0---0-4s2-0----4---------0-4---2-4-0-----4s2-|
E:--2-2-2-------2---0-2----------------2-2-2-------2---0-2-----------|


e:-------------------------------------------------------------------|
B:-------------------------------------------------------------------|
G:----4--------4s6-----------------------4--------4s6----------------|
D:--2-2--------2s4-2---------2---2-6s4-2-2--------2s4-2---------2----|
A:--0----4---------0-4---2-4-0---0-4s2-0----4---------0-4---2-4-0----|
E:-------2-2-2-------2---0-2----------------2-2-2-------2---0-2------|


e:-------------------------------------------------------------------|
B:-------------------------------------------------------------------|
G:----------4--------------------------------------------------------|
D:--2-6s4-2-2--------------------------------------------------------|
A:--0-4s2-0----------------------------------------------------------|
E:-------------------------------------------------------------------|



(02:48) Figure F

e:-------------------------------------------------------------------|
B:----------------------5-7-6-10-7-6--3---------3--------5--3--5-3---|
G:o---------------------4-6-4-9--6-4--2--2-2-2--2--2-2-2-4--2--4-2-4~|
D:o--4--4-4-4--4--4-4-4--------------------------------------------4~|
A:-------------------------------------------------------------------|
E:-------------------------------------------------------------------|
 |                                                                   |
e:-------------------------------------------------------------------|
B:-------------------------------------------------------------------|
G:----------------------------2--------------------------4--2-4p2----|
D:---4--4-4-4--4--4-4-4-2-4-2----4-2--0--0-0-0--0--0-0-0---------[4]-|
A:-------------------------------------------------------------------|
E:-------------------------------------------------------------------|
     

e:-------------------------------------------------------------------|
B:---------------------------5-----5--10-7-5-3---------3--------5--3-|
G:---4s2---------------------4--6--4---9-6-4-2--2-2-2--2--2-2-2-4--2-|
D:---4s2--4--4-4-4--4--4-4-4-----------------------------------------|
A:-------------------------------------------------------------------|
E:-------------------------------------------------------------------|
 |                                                                   |
e:-------------------------------------------------------------------|
B:-------------------------------------------------------------------|
G:-------------------------------------2-----------------------------|
D:-----2h-4--4-4-4--4--4-4-4-4p2h4-2-----4-2-------------------------|
A:-------------------------------------------2--2-2-2--2p-0--h2-4--2-|
E:-------------------------------------------------------------------|


e:-------------------------------------------------------------------|
B:--5-3--------------------------------------------------------------|
G:--4-2-4~--4s2-----------------------------------------------------o|
D:------4~--4s2-----------------------------------------------------o|
A:-------------------------------------------------------------------|
E:-------------------------------------------------------------------|
 |                                                                   | 
e:-------------------------------------------------------------------|
B:-------------------------------------------------------------------|
G:------------------------------------------------------------------o|
D:----------0-2-----------------------------------------------------o|
A:--0----------------------------------------------------------------|
E:----[2]------------------------------------------------------------|



(03:06) Figure F

e:-------------------------------------------------------------------|
B:------------------9-------------------------------9----------------|
G:------------8-6-8---8-6-8p6h8p6-------------8-6-8---8-6-8p6h8p6----|
D:---6--6-6-6---------------------9--6--6-6-6---------------------9--|
A:-------------------------------------------------------------------|
E:-------------------------------------------------------------------|
 |                                                                   |
e:-------------------------------------------------------------------|
B:-------------------------------------------------------------------|
G:-------------------------------------------------------------------|
D:-------------------------------------------------------------------|
A:---6-------------------------------2-------------------------------|
E:---4-------------------------------0-------------------------------|


e:-------------------------------------------------------------------|
B:------------------9------------------------------------------------|
G:------------8-6-8---8-6-8p6h8p6-------------8-6---6----------------|
D:---6--6-6-6---------------------9--4--4-4-4-----9---9-8-9-8-4------|
A:-------------------------------------------------------------------|
E:-------------------------------------------------------------------|
 |                                                                   |
e:-------------------------------------------------------------------|
B:-------------------------------------------------------------------|
G:-------------------------------------------------------------------|
D:--------------------------------------------------4----------------|
A:---6-------------------------------4--------------2-----4----------|
E:---4-------------------------------2--------------------2----------|


e:-------------------------------------------------------------------|
B:------------------9-------------------------------9----------------|
G:------------8-6-8---8-6-8p6h8p6-------------8-6-8---8-6-8p6h8p6----|
D:---6--6-6-6---------------------9--6--6-6-6---------------------9--|
A:-------------------------------------------------------------------|
E:-------------------------------------------------------------------|
 |                                                                   |
e:-------------------------------------------------------------------|
B:-------------------------------------------------------------------|
G:-------------------------------------------------------------------|
D:-------------------------------------------------------------------|
A:---6------6------------------------2------2------------------------|
E:---4------4------------------------0------0------------------------|


e:-------------------------------------------------------------------|
B:------------------9------------------------------------------------|
G:------------8-6-8---8-6-8p6h8p6-------------8-6---6----------------|
D:---6--6-6-6---------------------9--4--4-4-4-----9---9-8-9-8-4------|
A:-------------------------------------------------------------------|
E:-------------------------------------------------------------------|
 |                                                                   |
e:-------------------------------------------------------------------|
B:-------------------------------------------------------------------|
G:-------------------------------------------------------------------|
D:--------------------------------------------------4-4-4------------|
A:---6------6------------------------4------4-------2-2-2-4-4-4------|
E:---4------4------------------------2------2-------------2-2-2------|


e:-------------------------------------------------------------------|
B:------------------9------------------------------------------------|
G:------------8-6-8---8-6-8p6h8p6-------------8-6---6----------------|
D:---6--6-6-6---------------------9--4--4-4-4-----9---9-8-9-8-4------|
A:-------------------------------------------------------------------|
E:-------------------------------------------------------------------|
 |                                                                   |
e:-------------------------------------------------------------------|
B:-------------------------------------------------------------------|
G:-------------------------------------------------------------------|
D:--------------------------------------------------4----------------|
A:---6-------6-----------------------4------4-------2-----4----------|
E:---4-------4-----------------------2------2-------------2----------|


e:-------------------------------------------------------------------|
B:------------------9-------------------------------9----------------|
G:o-----------8-6-8---8-6-8p6h8p6-------------8-6-8---8-6-8p6h8p6----|
D:o--6--6-6-6---------------------9--6--6-6-6---------------------9--|
A:-------------------------------------------------------------------|
E:-------------------------------------------------------------------|
 |                                                                   |
e:-------------------------------------------------------------------|
B:-------------------------------------------------------------------|
G:o------------------------------------------------------------------|
D:o------------------------------------------------------------------|
A:---6-------------------------------2-------------------------------|
E:---4--4-4-4--4-4-4-4-4-4--4--4--4--0--0-0-0--0-0-0-0-0-0--0--0--0--|


e:-------------------------------------------------------------------|
B:------------------9------------------------------------------------|
G:------------8-6-8---8-6-8p6h8p6-------------8-6---6---------------o|
D:---6--6-6-6---------------------9--4--4-4-4-----9---9-8-9-8-4-----o|
A:-------------------------------------------------------------------|
E:-------------------------------------------------------------------|
 |                                                                   |
e:-------------------------------------------------------------------|
B:-------------------------------------------------------------------|
G:------------------------------------------------------------------o|
D:--------------------------------------------------4-4-4-----------o|
A:---6-------------------------------4--------------2-2-2-4-4-4------|
E:---4--4-4-4--4-4-4-4-4-4--4--4--4--2--2-2-2--2-2--------2-2-2------|



(03:41) Figure G

e:-------------------------------------------------------------------|
B:-------------------------------------------------------------------|
G:o--------------------------6p4-------------6p4-6--6-s8--6--4-------|
D:o-----------6p4-6----------6p4-6-----------6p4-6--6-s8--6--4-------|
A:------------6p4-6--------------6--4--4-4-4-------------------------|
E:---4--4-4-4-------0--0-0-0-----------------------------------------|
 |                                                                   |
e:-------------------------------------------------------------------|
B:-------------------------------------------------------------------|
G:o--------------------------6p4-------------6p4-6--6~-8~-6~-4~------|
D:o-----------6p4-6----------6p4-6-----------6p4-6-------------------|
A:------------6p4-6--------------6--4--4-4-4-------------------------|
E:---4--4-4-4-------0--0-0-0-----------------------------------------|


e:-------------------------------------------------------------------|
B:-------------------------------------------------------------------|
G:---------------------------6p4-------------6p4----4s6--4----------o|
D:------------6p4-6----------6p4-6-----------6p4-6--4s6--4----------o|
A:------------6p4-6--------------6--4--4-4-4-----6-------------------|
E:---4--4-4-4-------0--0-0-0-----------------------------------------|



(04:07) Figure H (lead Rolf)

e:-------------------------------------------------------------------|
B:---------------------------16--17------19--16----------------------|
G:----\6---11fb----14fb--------------18----------16------------------|
D:---------------------------------------------------18~~------------|
A:-------------------------------------------------------------------|
E:-------------------------------------------------------------------|


e:---19-18-16h18p16----16-18-19-18-19--21~~--------------------------|
B:------------------19-----------------------19~~-----21~~-----------|
G:-------------------------------------------------------------------|
D:-------------------------------------------------------------------|
A:-------------------------------------------------------------------|
E:-------------------------------------------------------------------|



(04:42) Figure I

e:-------------------------------------------------------------------|
B:-------------------------------------------------------------------|
G:o------------------------------------------------6--s8---6---------|
D:o------------------------------------------------6--s8---6---4-----|
A:---2--2-2-2-6-4-2----------------2--2-2-2-6-4-2--------------4-----|
E:------------------4--4-4-4-4-2-4-----------------------------------|
 |                                                                   |
e:-------------------------------------------------------------------|
B:-------------------------------------------------------------------|
G:-------------------------------------------------------------------|
D:-------------------------------------------------6--s8---6---------|
A:---2--2-2-2-6-4-2----------------2--2-2-2-6-4-2--4--s6---4---4-----|
E:------------------4--4-4-4-4-2-4-----------------------------2-----|


e:-------------------------------------------------------------------|
B:-------------------------------------------------------------------|
G:-------------------------------------------------6-----------------|
D:-------------------------------------------------6---6----6--------|
A:---2--2-2-2-6-4-2----------------2--2-2-2-6-4-2------6----6--------|
E:------------------4--4-4-4-4-2-4-----------------------------------|
 |                                                                   |
e:-------------------------------------------------------------------|
B:-------------------------------------------------------------------|
G:------------------------------------------------------------------o|
D:-------------------------------------------------6----------------o|
A:---2--2-2-2-6-4-2----------------2--2-2-2-6-4-2--4---6----6--------|
E:------------------4--4-4-4-4-2-4---------------------4----4--------|


e:-------------------------------------------------------------------|
B:-------------------------------------------------------------------|
G:-------------------------------------------------8--s10---8--------|
D:-------------------------------------------------8--s10---8---6----|
A:---4--4-4-4-8-6-4----------------4--4-4-4-8-6-4---------------6----|
E:------------------6--6-6-6-6-4-6-----------------------------------|
 |                                                                   |
e:-------------------------------------------------------------------|
B:-------------------------------------------------------------------|
G:-------------------------------------------------------------------|
D:-------------------------------------------------8--s10---8--------|
A:---4--4-4-4-8-6-4----------------4--4-4-4-8-6-4--6--s8----6---6----|
E:------------------6--6-6-6-6-4-6------------------------------4----|


e:-------------------------------------------------------------------|
B:-------------------------------------------------------------------|
G:-------------------------------------------------8-----------------|
D:-------------------------------------------------8---8----8--------|
A:---4--4-4-4-8-6-4----------------4--4-4-4-8-6-4------8----8--------|
E:------------------6--6-6-6-6-4-6-----------------------------------|
 |                                                                   |
e:-------------------------------------------------------------------|
B:-------------------------------------------------------------------|
G:-------------------------------------------------------------------|
D:-------------------------------------------------8-----------------|
A:---4--4-4-4-8-6-4----------------4--4-4-4-8-6-4--6---8----8--------|
E:------------------6--6-6-6-6-4-6---------------------6----6--------|



(05:09) Figure J (lead Rolf)

e:-------------------------------------------------------------------|
B:----------------------------------------------------------------5--|
G:-----------------------6-4-2--4-2-4-6-4-2-------2---2---4-4-6-6----|
D:---------2-----4-2------------------------4-2-4---4----------------|
A:---4-2-0---4-2-----4-0---------------------------------------------|
E:-------------------------------------------------------------------|


e:----------------------------------14-17-17fb--17fb---14-17f+hb-----|
B:----5--10----10-12fb-12-10-12~-------------------------------------|
G:--6-------11-------------------------------------------------------|
D:-------------------------------------------------------------------|
A:-------------------------------------------------------------------|
E:-------------------------------------------------------------------|


e:--14------------------------7p5---5--------------------------------|
B:------17--14h15p14--------------7---7----5--------------5----------|
G:-------------------14-16-------------------4--2--4-4fb-(6)--4-2----|
D:-----------------------------------------------------------------2-|
A:-------------------------------------------------------------------|
E:-------------------------------------------------------------------|



(05:09) Figure K (with Figure J)

e:-------------------------------------------------------------------|
B:-------------------------------------------------------------------|
G:-------------------------------------------------------------------|
D:------------------------------4--2---------------4-2---------------|
A:------------4--2--0-----------------4--0--0-0-0------4-2-0-2-4-2-0-|
E:--2--2-2-2-----------2--2-2-2--------------------------------------|



(05:26) Figure L

e:-------------------------------------------------------------------|
B:----------------------------------------------14-15-17--15--14-----|
G:------14---14-16-14-16fb-16----14h16p14------------------------16--|
D:---14-----------------------------------16~~-----------------------|
A:-------------------------------------------------------------------|
E:-------------------------------------------------------------------|
 |                                                                   |
e:-------------------------------------------------------------------|
B:-------------------------------------------------------------------|
G:-------------------------------------------------------------------|
D:------2----2--2--2---2---2-----2--------------------2----2--2--2---|
A:------0----0--0--0---0---0-----0--------4-----------0----0--0--0---|
E:----------------------------------------2--------------------------|


e:---------------------------------------------------------------14~-|
B:-------------------------------------------------------------------|
G:--16p14---------16-16-s18-14-16~-------14--14-16-14-16fb-16-14-----|
D:--------16--14----------------------14-----------------------------|
A:-------------------------------------------------------------------|
E:-------------------------------------------------------------------|
 |                                                                   |
e:-------------------------------------------------------------------|
B:-------------------------------------------------------------------|
G:----------------4--4---6--2--4-------------------------------------|
D:--6-----4-------2--2---4--0--2------2----2--2--2---2---2---2-------|
A:--4-----2---------------------------0----0--0--0---0---0---0---4---|
E:---------------------------------------------------------------2---|


e:---14-16-17---16---14----------------------------------------------|
B:-----------------------17--14--------------------------------------|
G:-------------------------------14----16-16--16p14h16p14------------|
D:--------------------------------------------------------16~~-------|
A:-------------------------------------------------------------------|
E:-------------------------------------------------------------------|
 |                                                                   |
e:-------------------------------------------------------------------|
B:-------------------------------------------------------------------|
G:-----------------------4-------------------------------------------|
D:---------2----2--2--2--2-------2-----4--4--------------------------|
A:---------0----0--0--0----------0-----2--2------(2p0)----4----------|
E:--------------------------------------------------------2----------|



(05:44) Figure M (with Figure A)

e:-------------------------------------------------------------------|
B:-------------------------------------------------------------------|
G:-------------------------------------------------------------------|
D:------------2-------------6----2----6------------------------------|
A:---4--------0--------4----4----0----4------------------------------|
E:---2-----------------2---------------------------------------------|


comments
We did not receive enough feedback on this tab! Please rate:
print report bad tab
1 2 3 4 5
1 comment total.
0 reply
BaptizedinFire wrote on May 9 2008, 09:49 am

Awesome song. I usually play Figure A in a different way, but the rest is spot on for me...

I want to post or [tab]
guest
You may want to rate the tab now too:
select rating
Please do not post tabs as comments. Select "correction" instead!