Oops, an error
Loading. Please wait.

Tortuga Bay Tab

1,431 views 3 this week
no commentswrite comment
1 2 3 4 5
please rate
Autoscroll
+/-
esc
set tempo
stop
Contributor
WARNING: You are trying to view
                                    content from Ultimate-Guitar.com
                                    in an unauthorized application,
                                    which is prohibited.

                                    Please use an official Ultimate
                                    Guitar Tabs application for iPhone,
                                    iPad or Android to access legitimate
                                    chords, guitar, bass, and drum tabs
                                    from Ultimate-Guitar.com database.

                                    Type "ultimate guitar tabs" in Apple
                                    App Store's or Android Market's
                                    search to find the application.
Running Wild
Tortuga Bay
Death or Glory

v 1.0 Jan 2008


~ = vibrato or held note
h = hammer on
p = pull off
s = slide
fb =  full bend
hb = half bend
r = release bend
* = artificial harmonic


Tortuga Bay, sort of a sister piece to Marooned. Very good and melodic 
riffing throughout the song.
Corrections, suggestions to beardedattacker@hotmail.com



(00:00) Figure A (with Rythm figure A, 00:12: in unison)

e:-------------------------------------------------------------------|
B:-------------------------------------------------------------------|
G:o----------6p4-----7-------6p4-------------4p2-------------4p2-----|
D:o--4-4-4-4-----4-4---4-4-4-----4-0-0-0-0-0-----0-2-2-2-2-0-----2---|
A:-------------------------------------------------------------------|
E:-------------------------------------------------------------------|


e:-------------------------------------------------------------------|
B:-------------------------------------------------------------------|
G:------------6p4-----7-------6p4-------------4p2-----2h4-2h4-4-----o|
D:--4-4-4-4-4-----4-4---4-4-4-----4-0-0-0-0-0-----4-0---------2-----o|
A:-------------------------------------------------------------------|
E:-------------------------------------------------------------------|



(00:24) Figure B

e:-------------------------------------------------------------------|
B:-------------------------------------------------------------------|
G:-------------------------------------------------------------------|
D:---4---------7s4---------11s7-------4---------7---------14---------|
A:---2-2-2-2-2-5s2-2-2-2-2-9-s5-5-5-5-2-2-2-2-2-5-5-5-5-5-12-12-12---|
E:-------------------------------------------------------------------|


e:-------------------------------------------------------------------|
B:-------------------------------------------------------------------|
G:-------------------------------------------------------------------|
D:--------2---------7-2---------4---------7s4---------11s7-----------|
A:--12-12-0-0-0-0-0-5-0-0-0-0-0-2-2-2-2-2-5s2-2-2-2-2-9-s5-5-5-5-----|
E:-------------------------------------------------------------------|


e:-------------------------------------------------------------------|
B:-------------------------------------------------------------------|
G:-------------------------------------------------------------------|
D:--4---------7---------9---------12--------------12-----------------|
A:--2-2-2-2-2-5-5-5-5-5-7-7-7-7-7-10-10-10-10-10--10-10-10-10-10-----|
E:-------------------------------------------------------------------|



(00:35) Figure C

e:-------------------------------------------------------------------|
B:-------------------------------------------------------------------|
G:-------------------------------------------------------------------|
D:---2---------4------7-----4-----4-7s11--4-7s9--2---------4---------|
A:---0---------2------5-----2-----2-5s9---2-5s7--0---------2---------|
E:--------2h5-----------------------------------------2h5------------|


e:-------------------------------------------------------------------|
B:-------------------------------------------------------------------|
G:-------------------------------------------------------------------|
D:---7----11---------------------------------------------------------|
A:---5----9----------------------------------------------------------|
E:-------------------------------------------------------------------|



(00:47) Figure D

e:-------------------------------------------------------------------|
B:-------------------------------------------------------------------|
G:-------------------------------------------------------------------|
D:---4--2--4----4--7--11--11-7--4---2-4-7--7--11-9--2--4--4--7-7-2---|
A:---2--0--2----2--5--9---9--5--2---0-2-5--5--9--7--0--2--2--5-4-0---|
E:-------------------------------------------------------------------|


e:-------------------------------------------------------------------|
B:-------------------------------------------------------------------|
G:-------------------------------------------------------------------|
D:--4--2--4--4--7--11--11-7--4---2-4-7--7--11-9--7--2--4-------------|
A:--2--0--2--2--5--9---9--5--2---0-2-5--5--9--7--5--0--2-------------|
E:-------------------------------------------------------------------|



(01:20) Figure E (solo Rolf) with Rythm figure B

e:-------------------------------------------------------------------|
B:-------------------------------------------------------------------|
G:--6-4-6-7-6-4--------------------------------------------4---------|
D:--------------6-4-6s-------2-4fbr-2-4-------2-4fb-4-2--4---2*------|
A:---------------------4-2-4------------4-2-4------------------2*~~~-|
E:-------------------------------------------------------------------|


e:--12-0-9-0-7-0-12-0-9-0-7-0-12-0-9-0-7-0-12-0-9-0-7-0-12-0-9-0-7---|
B:-------------------------------------------------------------------|
G:-------------------------------------------------------------------|
D:-------------------------------------------------------------------|
A:-------------------------------------------------------------------|
E:-------------------------------------------------------------------|


e:--0-12-9h12p9-12p9-----9-12p9--------------------------------------|
B:-------------------12---------12-9-12p9-12p9-----------------------|
G:---------------------------------------------11-9h11p9-----11~-----|
D:--------------------------------------------------------9*---------|
A:-------------------------------------------------------------------|
E:-------------------------------------------------------------------|


e:------------|--11-14-11-14fb~--11-14p11----11-14p11----11-14p11----|
B:------------|---------------------------14----------14----------14-|
G:--9-11-9----|------------------------------------------------------|
D:---------9~~|------------------------------------------------------|
A:------------|------------------------------------------------------|
E:------------|------------------------------------------------------|


e:--11-14p11-------14p11-------14p11---------------------------------|
B:-----------14p11-------14p11-------14p11--14p12p11h12p11-14--------|
G:-------------------------------------------------------------------|
D:-------------------------------------------------------------------|
A:-------------------------------------------------------------------|
E:-------------------------------------------------------------------|


e:--------------------------------------------|----------------------|
B:--11h12p11----------------------------------|----------------------|
G:-----------13p11h13p11h13p11----------------|----------------------|
D:-----------------------------13-11----------|----------------------|
A:-----------------------------------13-------|--------------11-11---|
E:--------------------------------------9*~s--|--11-11-14-14---------|


e:--------------------------------------------11-11-14-14------------|
B:--------------------------------11-11-14-14-------------------11---|
G:--------------------11-11-13-13-------------------------13-13------|
D:--------11-11-13-13------------------------------------------------|
A:--13-13------------------------------------------------------------|
E:-------------------------------------------------------------------|


e:-----------11-11-14-14-16-16-18-18-16-16-------21-21~--------------|
B:--11-14-14-------------------------------18-18---------------------|
G:-------------------------------------------------------------------|
D:-------------------------------------------------------------------|
A:-------------------------------------------------------------------|
E:-------------------------------------------------------------------|



(01:44) Figure F

e:-------------------------------------------------------------------|
B:-------------------------------------------------------------------|
G:-------------------------------------------------------------------|
D:-----------2--------------------------2-4----------2---------------|
A:-----4-2-0---4-2-0-2-4----4-2-0-5-4-2-0-2----4-2-0---4-2-0-2-4-----|
E:---2-------------------2~-----------------2~-------------------2~--|


e:-------------------------------------------------------------------|
B:-------------------------------------------------------------------|
G:--------------------------------2--------------------------2-4-----|
D:--------------2-4--0--0-0-4-2-0---4-2-0-2-4----4-2-0-5-4-2-0-2-----|
A:--4-2-0-5-4-2-0-2---------------------------2~---------------------|
E:-------------------------------------------------------------------|


e:-------------------------------------------------------------------|
B:-------------------------------------------------------------------|
G:---------------2--------------------------2-4----------------------|
D:---------4-2-0---4-2-0-2-4----4-2-0-5-4-2-0-2----------------------|
A:--2--2-2-------------------2~--------------------------------------|
E:-------------------------------------------------------------------|



(02:42) Figure G

e:-------------------------------------------------------------------|
B:-------------------------------------------------------------------|
G:-------------------------------------------------------------------|
D:---6--4--6----6--9--13--13-9--6---4-6-9--9--13-11--4--6--6--9-9-4--|
A:---4--2--4----4--7--11--11-7--4---2-4-7--7--11--9--2--4--4--7-6-2--|
E:-------------------------------------------------------------------|


e:-------------------------------------------------------------------|
B:-------------------------------------------------------------------|
G:-------------------------------------------------------------------|
D:--6--4--6-----6--9--13--13-9--6---4-6-9--9--13-11--11--4--6--------|
A:--4--2--4-----4--7--11--11-7--4---2-4-7--7--11--9--9---2--4--------|
E:-------------------------------------------------------------------|



Rythm figure A (tones in parenthesis are just studio overdubs)

e:--------(21)---(22)----------------(21)-----(22)-------------------|
B:-------------------------------------------------------------------|
G:-------------------------------------------------------------------|
D:---11-11-----7------9------11-11-11-----7-7------9-9---------------|
A:---9--9------5------7------9--9--9------5-5------7-7---------------|
E:-------------------------------------------------------------------|



Rythm figure B

e:-------------------------------------------------------------------|
B:-------------------------------------------------------------------|
G:o------------------------------------------------------------------|
D:o--6---------9--9--6---------6-6-4-4-6-6-----6---------9--9--4-4-6-|
A:---4-4-4-4-4-7--7--4-4-4-4-4-------------7-7-4-4-4-4-4-7--7--------|
E:-------------------------------------------------------------------|


e:-------------------------------------------------------------------|
B:-------------------------------------------------------------------|
G:------------------------------------------------------------------o|
D:--6-4-4-----------------------------------------------------------o|
A:--------7-7-2-2----------------------------------------------------|
E:-------------------------------------------------------------------|


e:-------------------------------------------------------------------|
B:-------------------------------------------------------------------|
G:o------------------------------------------------------------------|
D:o--8---------11-11--8---------8-8-6-6-8-8-----8---------11-11-6-6--|
A:---6-6-6-6-6-9--9---6-6-6-6-6-------------9-9-6-6-6-6-6-9--9-------|
E:-------------------------------------------------------------------|


e:-------------------------------------------------------------------|
B:-------------------------------------------------------------------|
G:------------------------------------------------------------------o|
D:--8-8-6-6---------------------------------------------------------o|
A:----------9-9-4-4--------------------------------------------------|
E:-------------------------------------------------------------------|


comments
We did not receive enough feedback on this tab! Please rate:
print report bad tab
1 2 3 4 5
I want to post or [tab]
guest
You may want to rate the tab now too:
select rating
Please do not post tabs as comments. Select "correction" instead!