Oops, an error
Loading. Please wait.

Treasure Island Tab

ver2
ver2

Whole song

Interactive

More versions @911Tabs.com
549 views 1 this week
no commentswrite comment
1 2 3 4 5
please rate
Autoscroll
+/-
esc
set tempo
stop
Contributor
WARNING: You are trying to view
                                    content from Ultimate-Guitar.com
                                    in an unauthorized application,
                                    which is prohibited.

                                    Please use an official Ultimate
                                    Guitar Tabs application for iPhone,
                                    iPad or Android to access legitimate
                                    chords, guitar, bass, and drum tabs
                                    from Ultimate-Guitar.com database.

                                    Type "ultimate guitar tabs" in Apple
                                    App Store's or Android Market's
                                    search to find the application.
Running Wild
Treasure Island
Pile of Skulls

v 1.0 March 2008


~ = vibrato or held note
h = hammer on
p = pull off
s = slide
fb =  full bend
hb = half bend
r = release bend
* = artificial harmonic
T = tapping


Treasure Island, the epic of epics of Running Wild.
Corrections, suggestions to beardedattacker@hotmail.com



(01:09) Figure A fades in 

e:-------------------------------------------------------------------|
B:--------------10-----------------------------10--------10---12-----|
G:------11-----------11------9---------11-----------11---------------|
D:---9------12-----------12--------9-------12------------------------|
A:-------------------------------------------------------------------|
E:-------------------------------------------------------------------|


e:-------------------------------------------------------------------|
B:--------------10---------------------------------------------------|
G:------11-----------11------9---------7--------9------7h9p7---------|
D:---9------12-----------12--------7-------7--------7----------9-----|
A:-------------------------------------------------------------------|
E:-------------------------------------------------------------------|



(01:23) Figure B

e:-------------------------------------------------------------------|
B:-------------------------------------------------------------------|
G:o------------------------------------------------------------------|
D:o---------4-4-4-4--------------------------4-4-4-4-----------------|
A:--2-2-2-2---------5-5-5-5-4-4-0-0--2-2-2-2---------5-5-5-5-4-4-0-0-|
E:-------------------------------------------------------------------|
 |                                                                   |
e:-------------------------------------------------------------------|
B:-------------------------------------------------------------------|
G:o------------------------------------------------------------------|
D:o-4-----------------------7---2----------------------------7---2---|
A:--2-2-2-2-2-2-2-2-2-2-2-2-5---0----2-2-2-2-2-2-2-2-2-2-2-2-5---0---|
E:-------------------------------------------------------------------|


e:-------------------------------------------------------------------|
B:-------------------------------------------------------------------|
G:----------2-2-2-2-------------------------2-2-2-2-----------------o|
D:--0-0-0-0---------4-4-4-4-2-2-----0-0-0-0---------4-4-4-4-2-2-4-4-o|
A:------------------------------4-4----------------------------------|
E:-------------------------------------------------------------------|
 |                                                                   |
e:-------------------------------------------------------------------|
B:-------------------------------------------------------------------|
G:------------------------------------------------------------------o|
D:--------------------------7---2-------------------4-------2---4---o|
A:--5-5-5-5-5-5-5-5-5-5-5-5-5---0-------------------2-------0---2----|
E:----------------------------------3-3-3-3-3-3-3-3------------------|



(01:38) Figure C

e:-------------------------------------------------------------------|
B:-------------------------------------------------------------------|
G:o---------------------------------------------2--------------------|
D:o---------4-----2-----4---------4-----2h4p2p0---4----------2-------|
A:---2--2-2---2-2---2-2---2-2-2-2---2-2--------------0-0-0-0---0-0---|
E:-------------------------------------------------------------------|


e:-------------------------------------------------------------------|
B:-------------------------------------------------------------------|
G:------------------------------------------------------------------o|
D:--0-----2----------------------2h4p2p0----------------------------o|
A:----0-0-----------5-2--2-2-2-2-------------------------------------|
E:----------3-3-3-3--------------------------------------------------|



(01:52) Figure D

e:-------------------------------------------------------------------|
B:-------------------------------------------------------------------|
G:o------------------------------------------------------------------|
D:o--4--------------------------------------2--4-s7--7-s4-2----------|
A:---2--2-2-2-2-2-2-2-2-2-2-2-2-2-2-2-2-----0--2-s5--5-s2-0--0-0-0-0-|
E:-------------------------------------------------------------------|


e:-------------------------------------------------------------------|
B:-------------------------------------------------------------------|
G:------------------------------------------------------------------o|
D:----------------------------7--7--9-------------------------------o|
A:--0-0-0-0-0-0-0-0-5---------5--5--7--------------------------------|
E:------------------3-3-3-3-3----------------------------------------|



(02:06) Figure E

e:-------------------------------------------------------------------|
B:-------------------------------------------------------------------|
G:-------------------------------------------------------------------|
D:-----------4-4-4-4---------------------------4--2--7p0-4p0-0-2-----|
A:---2-2-2-2---------5-5-5-5-4-4-0-0--2-2-2-2------------------------|
E:-------------------------------------------------------------------|
 |                                                                   |
e:-------------------------------------------------------------------|
B:-------------------------------------------------------------------|
G:-------------------------------------------------------------------|
D:--4-----------------------7---2--------------7--2--4---2-----------|
A:--2-2-2-2-2-2-2-2-2-2-2-2-5---0----2-2-2-2-2-5--0--2---0-----------|
E:-------------------------------------------------------------------|



(02:23) Figure F 

e:-------------------------------------------------------------------|
B:-------------------------------------------------------------------|
G:---6--4--2--------2--4--2-----------------6--4--2--------2--4------|
D:---4--2--0--4--4--0--2--0--4--2-----------4--2--0--4--4--0--2------|
A:------------2--2-----------2--0--0-0-0-0-----------2--2------------|
E:-------------------------------------------------------------------|


e:---------------------------------|---------------------------------|
B:---------------------------------|---------------------------------|
G:---------------------------------|--6--4--2--------2--4--2---------|
D:---------------------------------|--4--2--0--4--4--0--2--0--4--2---|
A:--4-0-0-0-0-5-0-0-0-0-7-0-0-0-0--|-----------2--2-----------2--0---|
E:---------------------------------|---------------------------------|


e:-------------------------------------------------------------------|
B:-------------------------------------------------------------------|
G:----------6--4--2--------------------------------------------------|
D:----------4--2--0--4--2--------------------------------------------|
A:--0-0-0-0----------2--0--------------------------------------------|
E:-------------------------------------------------------------------|




(02:35) Figure G

e:-------------------------------------------------------------------|
B:-------------------------------------------------------------------|
G:---------2------------2--4--2--2---------2--2---4------------2-----|
D:---4--4--0--2--4--4---0--2--0--0---4--2--0--0---2--2---4--4--0--2--|
A:---2--2-----0--2--2----------------2--0------------0---2--2-----0--|
E:-------------------------------------------------------------------|


e:-------------------------------------------------------------------|
B:-------------------------------------------------------------------|
G:----------2--4--2--2---------2--2--4-------------------------------|
D:---4--4---0--2--0--0---4--2--0--0--2---2---------------------------|
A:---2--2----------------2--0------------0---------------------------|
E:-------------------------------------------------------------------|



(03:34) Figure H

e:-------------------------------------------------------------------|
B:-------------------------------------------------------------------|
G:o------------------------------------------------------------------|
D:o--4-----2-----4s7--2-4-----2-----4-4-4-4-4-4-2p0----4-----2-------|
A:---2-0-0-0-0-0-2s5--0-2-0-0-0-0-0-----------------0--2-0-0-0-0-0---|
E:-------------------------------------------------------------------|


e:-------------------------------------------------------------------|
B:-------------------------------------------------------------------|
G:---------------------4-4-4-4-4-4-2--------------------------------o|
D:--4s7--2-4-----2-------------------4p2----------------------------o|
A:--2s5--0-2-0-0-0-0-0-----------------------------------------------|
E:-------------------------------------------------------------------|



(03:58) Figure I

e:-------------------------------------------------------------------|
B:-------------------------------------------------------------------|
G:o----------2-2-------------2-2-------------2-2---------------------|
D:o------4-4-----4-4-----4-4-----4-4-----4-4-----4-4-2-2-2-2-2-4-2-0-|
A:---2-2-------------2-2-------------2-2-----------------------------|
E:-------------------------------------------------------------------|


e:-------------------------------------------------------------------|
B:-------------------------------------------------------------------|
G:----------2-2-------------2-2-----4-4-2-2-------------------------o|
D:------4-4-----4-4-----4-4-----4-4---------4-4-2-2-0-0-2-2---------o|
A:--2-2-------------2-2-------------------------------------0-0-0-0--|
E:-------------------------------------------------------------------|



(04:26) Figure J (lead Axel Morgan)

e:-------------------------------------------------------------------|
B:---17fb----------(19)----------(19)----------(19)----------s-------|
G:-------------------------------------------------------------------|
D:-------------------------------------------------------------------|
A:-------------------------------------------------------------------|
E:-------------------------------------------------------------------|


e:-------------------------------------------------------------------|
B:------------------------------------------14h17-15p14--------------|
G:--------------16p14-16p14-16h18p16p14h16--------------16-16p14-----|
D:--------16p14--------------------------------------------------16--|
A:--14-17------------------------------------------------------------|
E:-------------------------------------------------------------------|


e:-------------------------------------------------------------------|
B:-------------------------------------------------------------------|
G:-14---------------------------------------------------14h16p14h16--|
D:----16------16----s-----------------12-14-14-16-14-16--------------|
A:------------------------------12h14--------------------------------|
E:-------------------------------------------------------------------|


e:------------------------------------------------------17fbr----17--|
B:-14----------14-17p15p14-------------------------------------------|
G:----16p14h16-------------16-16p14----14-16-16-16fbr----------------|
D:----------------------------------16-------------------------------|
A:-------------------------------------------------------------------|
E:-------------------------------------------------------------------|


e:-17-14-17-15p14----------------------------------------------------|
B:----------------17--14---------------------------------------------|
G:-----------------------16-14--16-16-16p14----14--------------------|
D:------------------------------------------16----16-14-16p14--------|
A:------------------------------------------------------------16-14--|
E:-------------------------------------------------------------------|



(04:54) Figure K (lead Axel Morgan)

e:-------------------------------------------------------------------|
B:---14-17-14-17fb---------------------------------------------------|
G:--------------------------16fbr--p14-------------------------------|
D:-------------------------------------16---------------------7-9----|
A:--------------------------------------------------------7h9--------|
E:-------------------------------------------------------------------|


e:-------------------------------------------------------------------|
B:----------------------9---------9-12p10p9---------------12fb---12--|
G:------------9-11-9-11---11p9-11-----------11--11-9-11-9------------|
D:--9-11-9-11--------------------------------------------------------|
A:-------------------------------------------------------------------|
E:-------------------------------------------------------------------|


e:-------------------------------------------------------------------|
B:---------19fb------------19----------19-19p17p16-------------------|
G:-------------------------------------------------18-18p16-18p16----|
D:-------------------------------------------------------------------|
A:-------------------------------------------------------------------|
E:-------------------------------------------------------------------|


e:-------------------------------------------------------------------|
B:-------------14h17p15p14-------------------------------------------|
G:-s18fbr~~----------------16p14p13----------13-16p13--11p9----9-----|
D:----------------------------------16-14h16----------------11----11-|
A:-------------------------------------------------------------------|
E:-------------------------------------------------------------------|


e:-------------------------------------------------------------------|
B:-------------------------------------------------------------------|
G:---11fbr-p9h11-9---------------------------------------------------|
D:-----------------11-9-11-9-----------------------------------------|
A:---------------------------11-9-11-9~~~~---------------------------|
E:-------------------------------------------------------------------|



(04:54) Figure L (rythm for lead)

e:-------------------------------------------------------------------|
B:-------------------------------------------------------------------|
G:o----------4-4-------------4-4-------------4-4---------------------|
D:o------6-6-----6-6-----6-6-----6-6-----6-6-----6-6-4-4-4-4-4-6-4---|
A:---4-4-------------4-4-------------4-4---------------------------7-|
E:-------------------------------------------------------------------|


e:-------------------------------------------------------------------|
B:-------------------------------------------------------------------|
G:----------4-4-------------4-4-----6-6-4-4-------------------------o|
D:------6-6-----6-6-----6-6-----6-6---------6-6-4-4-----4-4---------o|
A:--4-4-------------4-4-----------------------------7-7-----2-2-2-2--|
E:-------------------------------------------------------------------|



(05:08) Figure M

e:-------------------------------------------------------------------|
B:-------------------------------------------------------------------|
G:-------------------------------------------------------------------|
D:---4------------------4------------------4----------4--------------|
A:---2-2-2-2-2-2-2-2-2--2-2-2-2-2-2-2-2-2--2-2-2-2-2--2-2-2-2-2------|
E:-------------------------------------------------------------------|


e:-------------------------------------------------------------------|
B:-------------------------------------------------------------------|
G:-------------------------------------------------------------------|
D:--4-4-2-2-0-0-2-2-0-0----------------------------------------------|
A:----------------------4-4------------------------------------------|
E:-------------------------------------------------------------------|



(05:13) Figure N

e:-------------------------------------------------------------------|
B:-------------------------------------------------------------------|
G:o------------2-2-----------------2----------------------2-2--------|
D:o------4p2p0-----4p2p0-----4p2p0---4-2-0h2h4------4p2p0-----4p2p0--|
A:---2-2-----------------2-2--------------------2-2------------------|
E:-------------------------------------------------------------------|


e:-------------------------------------------------------------------|
B:-------------------------------------------------------------------|
G:------------2----------------------2-2-----------------4-2---------|
D:------4p2p0---4-2-0-2-4--0-0-4-2-0-----4-2p0-0-0-4-2p0-----4-0-2-4-|
A:--2-2--------------------------------------------------------------|
E:-------------------------------------------------------------------|


e:-------------------------------------------------------------------|
B:-------------------------------------------------------------------|
G:------------2-2---------------------------------------------------o|
D:------4-2p0-----4p2p0-----4p2p0-2---------------------------------o|
A:--2-2-----------------2-2-------0----------------------------------|
E:-------------------------------------------------------------------|



(05:34) Figure O

e:-------------------------------------------------------------------|
B:-------------------------------------------------------------------|
G:o------------------------------------------------------------------|
D:o------------------------------------------------------------------|
A:---9----------9----------9--------9-7-7---9----------9-------------|
E:---7--7-7-7-7-7--7-7-7-7-7--7-7-7-7-5-5---7--7-7-7-7-7--7-7-7-7----|


e:-------------------------------------------------------------------|
B:-------------------------------------------------------------------|
G:--7h9p7------------------------------------------------------------|
D:--------9-7-7------7----------7----------7----------2-2--7---------|
A:--------------5-7--5--5-5-5-5-5--5-5-5-5-5--5-5-5-5-0-0--5--5-5-5--|
E:-------------------------------------------------------------------|


e:-------------------------------------------------------------------|
B:-------------------------------------------------------------------|
G:------------------------------------------------------------------o|
D:----7----------7-----------7--9--11-------------------------------o|
A:--5-5--5-5-5-5-5--5-5-5-5--5--7--9---------------------------------|
E:-------------------------------------------------------------------|



(06:28) Figure P

e:-------------------------------------------------------------------|
B:-------------------------------------------------------------------|
G:o--11--11-11-11-11--9--7--7-7-7-7--7--7-7-7-7--9--9-9-9-9--7h9p7---|
D:o------------------------------------------------------------------|
A:-------------------------------------------------------------------|
E:-------------------------------------------------------------------|
 |                                                                   |
e:-------------------------------------------------------------------|
B:-------------------------------------------------------------------|
G:o------------------------------------------------------------------|
D:o--11---------------9--7-----------7-----------9-------------------|
A:---9---9--9--9--9---7--5--5-5-5-5--5--5-5-5-5--7--7-7-7-7--5h7p5---|
E:-------------------------------------------------------------------|

e:-------------------------------------------------------------------|
B:-------------------------------------------------------------------|
G:------------------------------------------------------------------o|
D:---7--7-7-7-7--7--7-7-7-7-----------------------------------------o|
A:-------------------------------------------------------------------|
E:-------------------------------------------------------------------|
 |                                                                   |
e:-------------------------------------------------------------------|
B:-------------------------------------------------------------------|
G:------------------------------------------------------------------o|
D:------------------------------------------------------------------o|
A:---7-----------7---------------------------------------------------|
E:---5--5-5-5-5--5--5-5-5-5------------------------------------------|



(06:49) Figure Q

e:-------------------------------------------------------------------|
B:-------------------------------------------------------------------|
G:-------------2-2-----------------2----------------------2-2--------|
D:-------4p2p0-----4p2p0-----4p2p0---4-2-0h2h4------4p2p0-----4p2p0--|
A:---2-2-----------------2-2--------------------2-2------------------|
E:-------------------------------------------------------------------|


e:-------------------------------------------------------------------|
B:-------------------------------------------------------------------|
G:------------2----------------------2-2-----------------4-2---------|
D:------4p2p0---4-2-0-2-4--0-0-4-2-0-----4-2p0-0-0-4-2p0-----4-0-2-4-|
A:--2-2--------------------------------------------------------------|
E:-------------------------------------------------------------------|


e:-------------------------------------------------------------------|
B:-------------------------------------------------------------------|
G:------------2-2-----------2----------------------------------------|
D:------4-2p0-----4-2-0-------4p2p0h2h4--2-2-2-4---------------------|
A:--2-2-----------------2-2--------------0-0-0-2---------------------|
E:-------------------------------------------------------------------|



(07:06) Figure R

e:-------7----------------7------------------------------------------|
B:---0-7---7----------0-7---7----------------------------------------|
G:o----------7-9-6-7----------7-9-6-7----6-9-6---6---6------6--------|
D:o------------------------------------7-------7---9------7---7------|
A:------------------------------------------------------9------------|
E:-------------------------------------------------------------------|

e:-------------------------------------------------------------------|
B:-------------------------------------------------------------------|
G:--------6---------------------------------------------------------o|
D:----7-9-----------------------------------------------------------o|
A:--9----------------------------------------------------------------|
E:-------------------------------------------------------------------|



(07:20) Figure S (rythm for Figure R)

e:-------------------------------------------------------------------|
B:-------------------------------------------------------------------|
G:----------------2---------------------------------2----------------|
D:---4----2--4----0--2----4-------2----4----2--4----0--2----4--------|
A:---2----0--2-------0----2--4----0----2----0--2-------0----2--4-----|
E:---------------------------2---------------------------------2-----|

e:-------------------------------------------------------------------|
B:-------------------------------------------------------------------|
G:----------------2--------------------------------------------------|
D:---4----2--4----0--2----4-------2----------------------------------|
A:---2----0--2-------0----2--4----0----------------------------------|
E:---------------------------2---------------------------------------|



(07:41) Figure T (lead Rolf)

e:---------------------------------7h10p7----------------------------|
B:---5fbr*--------------------------------10-8-7----------------7-8--|
G:---------4---2---------------------------------9-9-9-hbr-7--9------|
D:---------------4-5-2--4p2------------------------------------------|
A:---------------------------2*~-------------------------------------|
E:-------------------------------------------------------------------|


e:-------------------------------------------------------------------|
B:--10p8p7-----------------------------------------------------------|
G:------------7fb~---------------------------------------------------|
D:---------9------------4-5-4--4*--4-5---4-4--4h5p4------------------|
A:---------------------------------------------------5-7-------------|
E:---------------------------------------------------------5~~-------|


e:---14-17p14-----------17----14------------------|------------------|
B:------------17-15-15-----17----15---17-14-------|------------------|
G:------------------------------------------14----|--9-9fb---9~--9~--|
D:------------------------------------------------|------------------|
A:------------------------------------------------|------------------|
E:------------------------------------------------|------------------|


e:-------------------------------------------------------------------|
B:-------------------------------7-8-10-8-7-----7--------------------|
G:---7h9p7---7fb-7fb---------7-9------------9-7---9-7-9-9fbr-fbr-----|
D:---------9---------9-9-7-9-----------------------------------------|
A:-------------------------------------------------------------------|
E:-------------------------------------------------------------------|


e:--7h10p7-----------------------------------------------------------|
B:---------10-7-7-10-10----------------------------------------------|
G:----------------------7h9p7h9p7------------------------------------|
D:--------------------------------9p7h9p7----------------------------|
A:----------------------------------------7h9p7h9--------------------|
E:------------------------------------------------10p7h10p7-7p5h7p5--|


e:-------------------------------------------------------------------|
B:-------------------------------------------------------------------|
G:--------------------------------7h9p7h9p7h9p7-9-9fb-9-7---7-9fbr-7-|
D:-----------------------9-7-9-7--------------------------9----------|
A:-----7p5h7p5h7-9p7h9p7---------------------------------------------|
E:-h7----------------------------------------------------------------|


e:-------------------------------------------------------------------|
B:-------------------------------------------------------------------|
G:--9-7--------------------------------------------------------------|
D:------9------------------------------------------------------------|
A:-------------------------------------------------------------------|
E:-------------------------------------------------------------------|



(07:41) Figure U (rythm for Figure T and V)

e:-------------------------------------------------------------------|
B:-------------------------------------------------------------------|
G:o-----------------------------------------------------------------o|
D:o--4----7----2----7--2--------------------------------------------o|
A:---2----5----0----5--0---------------------------------------------|
E:-------------------------------------------------------------------|



(08:23) Figure V (lead Axel Morgan)
     
     T              T              T              T 
e:---17p15h14h15p14-19p15h14h15p14-17p15p14h15p14-19p14h15p14h15p14--|
B:-------------------------------------------------------------------|
G:-------------------------------------------------------------------|
D:-------------------------------------------------------------------|
A:-------------------------------------------------------------------|
E:-------------------------------------------------------------------|

    T              T              T              T
e:--17p15p14h15p14-19p15p14h15p14-19p15p14h15p14-17p15p14h15p14------|
B:-------------------------------------------------------------------|
G:-------------------------------------------------------------------|
D:-------------------------------------------------------------------|
A:-------------------------------------------------------------------|
E:-------------------------------------------------------------------|


e:-------14----------------14-17-17p15p14-14-------------------------|
B:--17fb-----17fb-------------------------------14----------14h17p14-|
G:-------------------------------------------16----16-14-16----------|
D:-------------------------------------------------------------------|
A:-------------------------------------------------------------------|
E:-------------------------------------------------------------------|


e:-------------------------------------------------------------------|
B:------------------------------------------14-15-14-----------------|
G:---16-14-16-14-----16fbr-fbr--------16-16----------16-14-16--16fbr-|
D:---------------16--------------------------------------------------|
A:-------------------------------------------------------------------|
E:-------------------------------------------------------------------|


e:-----------------17fb-15p14--------14-------|----------------------|
B:----------------------------17fb------17fb--|----------------------|
G:---p16-14-16--------------------------------|-------7--6--7--9--7--|
D:--------------------------------------------|---9------------------|
A:--------------------------------------------|----------------------|
E:--------------------------------------------|----------------------|


e:-------------------------------------------------------------------|
B:---------------------------------------------------15p14-----------|
G:---6--------7------7--6--7--9--7--6---------9s16---------16~-------|
D:------7--9-----9~--------------------7--9--------------------------|
A:-------------------------------------------------------------------|
E:-------------------------------------------------------------------|


e:-----------------------------------------17fb--19fb-fbrp17--19p~~--|
B:---15p14-----14-15-17fb---17fbr-14---------------------------------|
G:---------16-------------------------16-----------------------------|
D:-------------------------------------------------------------------|
A:-------------------------------------------------------------------|
E:-------------------------------------------------------------------|


comments
We did not receive enough feedback on this tab! Please rate:
print report bad tab
1 2 3 4 5
I want to post or [tab]
guest
You may want to rate the tab now too:
select rating
Please do not post tabs as comments. Select "correction" instead!