Oops, an error
Loading. Please wait.

2112 I Overture Bass Tab

by Rush
8,975 views 42 this week
2 commentsread comments
1 2 3 4 5
excellent!
x 3
add to favorites launch autoscroll
font size
0
reset
Autoscroll
+/-
esc
set tempo
stop
Contributor
WARNING: You are trying to view
                                    content from Ultimate-Guitar.com
                                    in an unauthorized application,
                                    which is prohibited.

                                    Please use an official Ultimate
                                    Guitar Tabs application for iPhone,
                                    iPad or Android to access legitimate
                                    chords, guitar, bass, and drum tabs
                                    from Ultimate-Guitar.com database.

                                    Type "ultimate guitar tabs" in Apple
                                    App Store's or Android Market's
                                    search to find the application.
Rush - 2112 Overture

The legendary Geddy Lee... don't expect this to be easy.

     H.           E  E     E  E  H.            
G||---------------------|--2------------------|
D||------------------2--|---------------------|
A||---------------------|---------------------|
E||---------------------|---------------------|


  Q.     E  E     W                 
---------------|-------------------|
---------------|-------------------|
---------3-----|--5----------------|
------------3--|-------------------|


  E  H        E  E  E     E  H        E   
-----------------2--2--|--2--------------|
-----------------------|--------------2--|
--3--------------------|-----------------|
-----------------------|-----------------|


  Q    Q.     E     E  H.           E   
--2--------------|---------------------|
-----------------|------------------2--|
--------------3--|---------------------|
-----------------|--3------------------|


  E  H.           E  E     Q    E  E  Q    E   
--2---------------------|---------------------|
------------------------|------------------2--|
------------------3-----|--5----3-----5-------|
---------------------3--|----------3----------|


  E  H.           E     E  H.           E   
--2------------------|---------------------|
---------------------|------------------2--|
------------------3--|---------------------|
---------------------|--3------------------|


  E  H.           E  E     Q    E  E  Q    E   
--2---------------------|---------------------|
------------------------|------------------2--|
------------------3-----|--5----3-----5-------|
---------------------3--|----------3----------|


  E  H.           E     E  H.           E   
--2------------------|---------------------|
---------------------|------------------2--|
------------------3--|---------------------|
---------------------|--3------------------|


  E  Q    E  E  Q    E  E     Q    E  E  Q    E   
--2-------0----------------|---------------------|
-------------0-------------|------------------2--|
---------------------3-----|--5----3-----5-------|
------------------------3--|----------3----------|


  Q    Q    Q    Q        Q.     E   
-----------------------|------------|
--9----7----5----9\----|------------|
-----------------------|--5---------|
-----------------------|---------5--|


  W                   W                 
-------------------|-------------------|
-------------------|-------------------|
--5----------------|--L----------------|
-------------------|-------------------|


  Q    Q    Q    Q       Q.     E     W                 
----------------------|------------|-------------------|
--5----7----5----4----|--2---------|-------------------|
----------------------|---------4--|-------------------|
----------------------|------------|--5----------------|


  H.           Q       E  S S E  S S E  S S E  E   
---------------2----|-----------------------------|
--------------------|-----------------------------|
--------------------|-----------------------------|
--L-----------------|--7--7-7-7--7-7-7--7-7-7--5--|


  E  S S E  S S Q    E  E     E  S S Q    Q    E  E   
---------------------------|-------------------------|
---------------------------|-------------------------|
---------------------5--4--|--------------7----5--4--|
--3--3-3-3--3-3-3----------|--5--4-4-5---------------|


  E  S S S S S S E  Q.        E  E  E  E  E  E  E  E   
---------------------------|--------------------------|
---------------------------|--------------------------|
--------------------5------|--2--1--2--1--2--1--2--0--|
--7--7-7-7-7-7-7-7---------|--------------------------|


  E  E  E  E  E  E  E  E     E  E  E  E  Q    E  E   
--------------------------|-------------------------|
--------------------------|-------------------------|
--------------------5--4--|--------------7----5--4--|
--3--2--3--2--3--2--------|--5--4--5--4-------------|


  E  E  E  E  E  Q.        E  E  E  E  E  E  E  E   
------------------------|--------------------------|
------------------------|--------------------------|
--2--1--2--1--2--5------|--2--1--2--1--2--1--2--0--|
------------------------|--------------------------|


  E  E  E  E  Q    E  E     E  E  E  E   Q    E  E   
-------------------------|--------------------------|
-------------------------|--------------------------|
-------------------5--4--|---------------7----5--4--|
--3-----3--2--3----------|--5--4--5--4/-------------|


  E  E  E  E  E  Q.        Q    Q    Q    E  E   
------------------------|-----------------------|
-----------------0------|-----------------------|
--2--1--2--1--2---------|--2----2----2----2--0--|
------------------------|-----------------------|


  Q    Q    Q    E  E     Q    Q    Q    E  E   
-----------------------|-----------------------|
-----------------------|-----------------------|
-----------------5--4--|------------7----5--4--|
--3----3----3----------|--5----5---------------|


  E  E  E  E  E  E  E  E     W                 
--------------------------|-------------------|
--------------------------|-------------------|
--2-----------------4-----|-------------------|
-----0--2--3--5--3-----5--|--5----------------|


  W                   W                 
-------------------|-------------------|
-------------------|-------------------|
-------------------|-------------------|
--L----------------|--L----------------|


  E  E  E  E  E  E  E  E     W                 
--------------------------|-------------------|
--------------------------|-------------------|
--------------------4-----|-------------------|
--L--0--2--3--5--3-----5--|--5----------------|


  W                   W                 
-------------------|-------------------|
-------------------|-------------------|
-------------------|-------------------|
--L----------------|--L----------------|


  E  E  E  E  E  E  E  E     Q.     E  Q.     E   
--------------------------|----------------------|
--------------------------|-------------------7--|
--------------------4-----|---------4--4---------|
--L--0--2--3--5--3-----5--|--L-------------------|


  H        Q.     S S    H        Q.     S S  
----------------------|----------------------|
--7--------L------7-9-|--7--------L------7-9-|
----------------------|----------------------|
----------------------|----------------------|


  E   E  E  E  E  E  E  E     Q    E  E  Q    E  E   
---------------------------|---------------------4--|
--7\-----------------------|----------1--1----------|
------------------------2--|--L---------------------|
------0--2--3--5--3--0-----|------------------------|


                               |----3----|     
  W                   H        Q    Q    Q     
--4----------------|--------------------------|
-------------------|--------------------------|
-------------------|--2-------------2----0----|
-------------------|--------------------------|


           |----3----|                |----3----|     
  H        Q    Q    Q       H        Q    Q    Q     
--------------------------|--------------------------|
--------------------------|--------------------------|
--------------------------|--------------------------|
--0--------L----2----3----|--5--------L----4----5----|


                                      |----3----|     
  E.  E.  E  E  E   Q        H        Q    Q    Q     
-------------------12\----|--------------------------|
--------------------------|--------------------------|
--5---4-------------------|--2-------------2----0----|
----------5--7------------|--------------------------|


           |----3----|                |----3----|     
  H        Q    Q    Q       H        Q    Q    Q     
--------------------------|--------------------------|
--------------------------|--------------------------|
--------------------------|--------------------------|
--3--------L----2----3----|--5--------L----4----5----|


                                      |----3----|     
  E.  E.  E  E  E   Q        H        Q    Q    Q     
-------------------12\----|--------------------------|
--------------------------|--------------------------|
--5---4-------------------|--2-------------2----0----|
----------5--7------------|--------------------------|


           |----3----|                |----3----|     
  H        Q    Q    Q       H        Q    Q    Q     
--------------------------|--------------------------|
--------------------------|--------------------------|
--------------------------|--------------------------|
--3--------L----2----3----|--5--------L----4----5----|


  E.  E.  E     E  H.              E  E  H.            
-------------|------------------|---------------------|
-------------|------------------|---------------------|
--5---4------|------------------|---------------------|
----------5--|--7---------------|--7------------------|


  E  W                E     Q.     Q    Q     
-------------------------|-------------------|
-------------------------|-------------------|
-------------------------|--5-----------7----|
--7----------------------|---------5---------|


  E  H.              E  E  H.            
------------------|---------------------|
------------------|---------------------|
------------------|---------------------|
--7---------------|--7------------------|


  E  W                E     Q.     Q    Q     
-------------------------|-------------------|
-------------------------|-------------------|
-------------------------|--5-----------7----|
--7----------------------|---------5---------|


  H.           E  E     E  E  E  E  E  E  E  E   
---------------------|--------------------------|
---------------------|--------------------------|
--0------------0-----|--------------------------|
------------------0--|--3--3--3--3--3--3--3--0--|


  E  E  E  E  E  E  E  E     E  E  E  E  E.  E.  E   
--------------------------|-------------------------|
--------------------------|-------------------------|
--------------------------|--------------3-------3--|
--1--1--1--1--1--1--1--1--|--1--0--1---------3------|


  Q.     E  Q    E  E     Q.     E  S S E  E  E   
-----------------2-----|-------------------------|
------------2----------|-------------------------|
--0------0----------2--|--3------2--3-3-2--------|
-----------------------|-------------------3--2--|


  Q.     E  Q.     E     E  E  Q    E.  E.  E   
----------------------|------------------------|
----------------------|------------------------|
----------------------|-------------3-------3--|
--1------0--1------0--|--1--0--1--------3------|


  Q.     E  Q    E  E     Q.     E  S S E  E  E   
-----------------------|-------------------------|
------------2----------|-------------------------|
--0------0-------0--2--|--3------2--3-3-2--------|
-----------------------|-------------------3--2--|


  Q.     E  Q.     E     E  E  Q    E.  E.  E   
----------------------|------------------------|
----------------------|------------------------|
----------------------|-------------3-------3--|
--1------0--1------0--|--1--0--1--------3------|


  Q.     E  Q    E  E     Q.     E  S S E  E  E   
-----------------------|-------------------------|
------------2----------|-------------------------|
--0------0-------0--2--|--3------2--3-3-2--------|
-----------------------|-------------------3--2--|


  Q.     E  Q.     E     E  E  Q    E.  E.  E   
----------------------|------------------------|
----------------------|------------------------|
----------------------|-------------3-------3--|
--1------0--1------0--|--1--0--1--------3------|


  Q.     E  Q    E  E     Q.     E  S S E  E  E   
-----------------------|-------------------------|
------------2----------|-------------------------|
--0------0-------0--2--|--3------2--3-3-2--------|
-----------------------|-------------------3--2--|


  E  E  E  E  E  E  E  E     E  E  E  E  E  E  E  E   
--------------------------|--------------------------|
--------------------------|--------------------------|
--------------------------|--------------------3-----|
--1--1--1--1--1--1--1--1--|--1--1--1--0--1-----------|


  S S S E  E  S E  E  E  E   
----------------------------|
----------------------------|
----------------------5-----|
--5-7-7-7--7--7-7-----------|


  S S S E  E  S E  E  E  E   
----------------------------|
----------------------------|
----------------------------|
--5-7-7-7--7--7-7-----3-----|


  S S S E  E  S E  E  E  E   
----------------------------|
----------------------------|
----------------------5-----|
--5-7-7-7--7--7-7-----------|


  S S S E  E  S E  E  E  E   
----------------------------|
----------------------------|
----------------------------|
--5-7-7-7--7--7-7-----3-----|


  S S S E  E  S E  E  E  E   
----------------------------|
----------------------------|
----------------------5-----|
--5-7-7-7--7--7-7-----------|


  S S S E  E  S E  E  E  E   
----------------------------|
----------------------------|
----------------------------|
--5-7-7-7--7--7-7-----3-----|


  S S S E  E  S E  E  E  E   
----------------------------|
----------------------------|
----------------------5-----|
--5-7-7-7--7--7-7-----------|


  S S S E  E  S E  E  E  E   
----------------------------|
----------------------------|
-------------------4--5--6--|
--5-7-7-7--7--7-7-----------|


  E  S E  S E   E  S E  S E   
-----------------------------|
-----------------------------|
-----7----7--------5----5----|
-------7----7\-------5----5--|


  S E  S E  S E  S E  E  E   
----------------------------|
----------------------------|
--3----2----3----2----3-----|
----------------------------|


  S S S E  E  S E  E  E  E   
----------------------------|
----------------------------|
----------------------5-----|
--5-7-7-7--7--7-7-----------|


  S S S E  E  S E  E  E  E   
----------------------------|
----------------------------|
----------------------------|
--5-7-7-7--7--7-7-----3-----|


  E  S E  S E  E  S E  S E     E.  E.  E.  E.  E  E   
----------------------------|------------------5--4--|
----------------------------|----------5---4---------|
-----7----7-------5----5----|--3---2-----------------|
-------7----7-------5----5--|------------------------|


  S S S S S S E  E  E  E  E   
-----------------------------|
-----------------------------|
--------------------4--5-----|
--5-7-7-7-7-7-7--7--------5--|


  S S S E  E  S E  E  E  E   
----------------------------|
----------------------------|
----------------------------|
--5-7-7-7--7--7-7--6--5--4--|


  S S S S S S E  E  E  E  E   
-----------------------------|
-----------------------------|
--------------------4--5-----|
--5-7-7-7-7-7-7--7--------5--|


  S S S E  E  S E  E  E  E   
----------------------------|
----------------------------|
----------------------------|
--5-7-7-7--7--7-7--6--5--4--|


  S S S S S S E  E  E  E  E   
-----------------------------|
-----------------------------|
--------------------4--5-----|
--5-7-7-7-7-7-7--7--------5--|


  S S S E  E  S E  E  E  E   
----------------------------|
----------------------------|
----------------------------|
--5-7-7-7--7--7-7--6--5--4--|


  S S S S S S E  E  E  E  E     S S S E  E  S E  E   
-----------------------------|----------------------|
-----------------------------|----------------------|
--------------------4--5-----|----------------------|
--5-7-7-7-7-7-7--7--------5--|--5-7-7-7--7--7-7--7--|


  W                E     Q    E  E  Q    E   
----------------------|---------------------|
----------------------|---------------------|
----------------------|-------3-----5----3--|
--3----------------L--|--L-------3----------|


  E  Q    E  H           H        H         
----------------------|--------------------|
----------5-----------|--------------------|
-----5-------7--------|--7--------7--------|
--3-------------------|--------------------|


  H        H           W                 
--------------------|-------------------|
--------------------|-------------------|
--7--------7--------|--L----------------|
--------------------|-------------------|


  W                   W                 
-------------------|-------------------|
-------------------|-------------------|
--L----------------|-------------------|
-------------------|-------------------|


  W                   W                 
-------------------|-------------------|
-------------------|-------------------|
-------------------|-------------------|
-------------------|-------------------|


  W                  
-------------------||
-------------------||
-------------------||
-------------------||




Duration Legend
---------------
W - whole
H - half
Q - quarter
E - 8th
S - 16th
T - 32nd
X - 64th
. - note dotted
|-n-|  - n-tuplets


Tablature Legend
----------------
L - tied note
x - dead note
g - grace note
(n) - ghost note
> - accentuded note
NH - natural harmonic
AH - artificial harmonic
TH - tapped harmonic
SH - semi harmonic
PH - pitch harmonic
h - hammer on
p - pull off
b - bend
br - bendRelease
pb - preBend
pbr - preBendRelease
brb - bendReleaseBend
\n/ - tremolo bar dip
\n - tremolo bar dive
-/n - tremolo bar Release up
/n\ - tremolo bar inverted dip
/n - tremolo bar return
-\n - tremolo bar Release down
S - shift slide
s - legato slide
/ -  slide into from below or out of upwards
\ -  slide into from above or out of downwards
~ - vibrato
W - wide vibrato
tr - trill
TP - tremolo picking
T - tapping
S - slap
P - pop
< - fade in
^ - brush up
v - brush down
comments
We did not receive enough feedback on this tab! Please rate:
1 2 3 4 5
2 comments total.
0 reply
canadadry78 wrote on October 7 2007, 09:47 pm

good tab but it really needs to be organized

0 reply
nobody's_hero wrote on July 9 2008, 06:00 pm

yeah, but its progressive so its hard to organize
still a answeome tab
Rush Rules

I want to post or [tab]
guest
You may want to rate the tab now too:
select rating
Please do not post tabs as comments. Select "correction" instead!