Oops, an error
Loading. Please wait.

A Farewell To Kings Drum Tab

by Rush
203 views 1 this week
no commentswrite comment
1 2 3 4 5
please rate
Autoscroll
+/-
esc
set tempo
stop
Contributor
WARNING: You are trying to view
                                    content from Ultimate-Guitar.com
                                    in an unauthorized application,
                                    which is prohibited.

                                    Please use an official Ultimate
                                    Guitar Tabs application for iPhone,
                                    iPad or Android to access legitimate
                                    chords, guitar, bass, and drum tabs
                                    from Ultimate-Guitar.com database.

                                    Type "ultimate guitar tabs" in Apple
                                    App Store's or Android Market's
                                    search to find the application.
NOT MY TAB. I just thought it would be good to have these here on UG. Credit goes to those below.


Rush: A Farewell to Kings
From the album A Farewell to Kings (Mercury Records)
Copyright 1977 Core Music Publishing
Music by Lee, Lifeson, and Peart
Lyrics by Peart

Comments/corrections to Bryan McDonald 

Transcribed by Bill Wheeler and Bryan McDonald


q = 134

(1:08)
      q       e   e   e   e   e   e      e   e   e   e   e   e   e   e
H|----C-------H---H---H---H---H---H--|---H---H---H---H---H---H---H---H-|
S|4:----------X---------------X------|-----------X---X-----------X---X-|
T|4:---------------------------------|---------------------------------|
F|----X-----------X---X-----------X--|---X---------------X---X---------|

     q       e   e   e   e   e   e       e   s  s  s s s s s s s s
H|---C-------H---H---H---H---H---H---|---H---H----------------------|
S|-----------X---------------X-------|3:-------(X)-X-X--------------|
T|-----------------------------------|4:---------------1-1-2-2-3-3--|
F|---X-----------X---X---------------|---X---X----------------------|

      q       e   e   e   e   e   e      e   e   e   e+  e   e
H|----C-------H---H---H---H---H---H--|---H---H---H---C-------C---|
S|4:----------X---------------X------|3:---------X---------------|
T|4:---------------------------------|4:-------------------------|
F|----X-----------X---X--------------|---X---X-------X-------X---|

                                                     6           6
      q       e   e   e   e   e   e      e   e   s^s^s^s^s^s s^s^s^s^s^s
H|----C-------C-------H---H---H---H--|---H---H---X-X---------------------|
S|4:----------X---------------X------|3:---------------------------------|
T|4:---------------------------------|4:-------------1-1-1-1-2-2-2-2-3-3-|
F|----X-----------X---X--------------|---X---X---------------------------|

      q       e   e   e   e   e   e       e   e+  e   e   e   e
H|----C-------H---H---H---H---H---H--|----H---C-------C---H---C------|
S|4:----------X---------------X------|3:-----------------------------|
T|4:---------------------------------|4:-----------------------------|
F|----X-----------X---X--------------|--------X-------X-------X------|

      q       e   e   e   e   e   e     e   e   e   e   e   e   q
H|----C-------H---H---H---H---H---H--|--H---H------------------------|
S|-4:---------X---------------X------|----------X---X---X---X---X----|
T|-4:--------------------------------|----------3---3---3---3---3----|
F|----X-----------X---X--------------|--X---X------------------------|

q = 140

(1::33)
     q+      q                          w
H|---C---------------r-------r-------|--r----------------------------|
S|-------------------e-------e-------|--e----------------------------|
T|-------------------s-------s-------|--s----------------------------|
F|---X---------------t-------t-------|--t----------------------------|

                                              3               When they...
                                        q^^^^^q^^^^^q    e   e   q
H|-----------------------------------|-------------------------------|
S|-----------------------------------|-xxX---------------------------|
T|-----------------------------------|---------1------2---2---2---3--|
F|-----------------------------------|-------------------------------|


     q       e   e   e   e   q          e   s s e   e   e   e   e
H||--C-------H-------H-------H-------|--H-------H-------H-------H----|
S||o---------X---------------X-------|----------X---------------X----|
T||o---------------------------------|-------------------------------|
F||--X-----------X-------X-----------|--X---X-X-----X-------X--------|

                                     ________________________________
                                     | 1.
     e   s s e   e   e   e   e       |  e   e   e   e   s s s s s s s
H|---H-------H-------H-------H-------|--H-------X---------------O---r---||
S|---------------------------X-------|------------------X-X-X-X-----e--o||
T|-----------------------------------|------------------------------s--o||
F|---X---X-X-----X-------X-----------|--X---X-------X-----------X-P-t---||

 ____________________________________
 | 2.
 |  e   e   e   e   e   e   e   e       q+      e   e+  q       q
H|--H-------H-------H-------H--------|--C-----------C----------------|
S|----------X-------X-------X--------|-------------------------------|
T|-----------------------------------|-------------------------------|
F|--X---X-------X-------X-------X----|--X-----------X-----------P----|

    >     >   >
    s s s s s s e+  e   e   e           e   e+  e   e   q+      e   e+
H|--------------C-----------H--------|--C---C-----------C-----------C-|
S|--X(X-X)X(X)X-------------X--------|------------------X-------------|
T|-----------------------------------|--------------------------------|
F|--------------X-------X------------|--X---X-------X---------------X-|

    q       e   e   e   e   e   s s     E    s e   e+  e   e   e   e
H|----------H---H---H---H---H--------|-------------C-------O-------O-|
S|------------------X---X---X---X-X--|-------X-X---------------X-----|
T|-----------------------------------|-------------------------------|
F|----------X---X--------------------|--X----------X-------X---------|

     s s s s s s e+  e   e   q           e+  e   e   e   q+      e   e+
H|---------------C-----------H--------|--C-------C-------C-----------C-|
S|---X(X-X)X-----------------X--------|------------------X-------------|
T|-----------2-2----------------------|--------------------------------|
F|---P-------P---X-------X------------|--X---X-------X---------------X-|

                                      (2:08)
    q       e   e   e   e   e   e        q       E    s  e   e   e   e
H|----------H---H---H---H------------||o-C-------H-------H-------H-----|
S|----------X---X---X---X---F--------||o-X---------------X-------X-----|
T|----------3---3---3---3------------||--------------------------------|
F|------------------------------X----||---------------X------X-------X-|

                                     _____________________________________
                                     | 1.
    q       E    s e   e   e   e+    |  e   e   e   e+  e   e   e   e+
H|--H-------H------H-------H---C-----|--C---H-------C-------C-------C--|
S|--X--------------X-------X---------|----------X---------------X------|
T|-----------------------------------|---------------------------------|
F|---------------X-----X-------X-----|------X-------X-------X-------X--|

__________________________________   _____________________________________
                                     | 2.                     3
    e   e   e   e+  e   e   e   e    |  e   e   e   e   q^^^^^q^^^^^q+
H|------C---X---C---C---C---F--------|----------H---H---C-----C-----C--|
S|-----------------------------------|----------X----------------------|
T|-----------------------------------|---------------------------------|
F|------X-------X-------X-------X----|------X-----------X-----X-----X--|
__________________________________   _____________________________________
                                     | 3.
    e   e   e   e   e   e   e   e    |  e   e   e   e   s s e   e   e+
H|------H---H---H--------------------|--------------O-------O---O---C--|
S|------X---X---X-------F---F--------|----------X-------X-X------------|
T|-----------------------------------|---------------------------------|
F|------------------X-----------X----|------X---------------X---X---X--|

    e   e   e   e   e   e   e   e       q+      q       h
H|------H----------------------------|--C---------------r--------------|
S|----------X---X-------X---X--------|------------------e--------------|
T|----------------------2---2--------|------------------s--------------|
F|------------------X-----------X----|--X---------------t--------------|

    q       q       h                   Q         e  h
H|--C---------------r----------------|--c---------c--r-----------------|
S|------------------e----------------|---------------e-----------------|
T|------------------s----------------|---------------s-----------------|
F|--X---------------t----------------|--X---------X--t-----------------|

(2:38)
    q       q       q       q           q         q       h
H|--C---------------r----------------|--C-----------------r------------|
S|------------------e----------------|--------------------e------------|
T|------------------s----------------|--------------------s------------|
F|--X---------------t-------P--------|--X-----------------t------------|

    w        						 w
H|--r--------------------------------|--r------------------------------|
S|--e--------------------------------|--e------------------------------|
T|--s--------------------------------|--s------------------------------|
F|--t--------------------------------|--t------------------------------|

    ---timbales---
    |     3      |       3
    q^^^^^q^^^^^q     e^^e^^e  q         q       e   e   e   e   q
H|-----------------------------------||--C-------H-------H-------H------|
S|--F-----F-----F-----F--X--X--------||o---------X---------------X------|
T|----------------------------x3-----||o--------------------------------|
F|-----------------------------------||--X-----------X-------X----------|

    e   s s e   e   e   e   q
H|--H-------H-------H-------H--------|-----------|
S|----------X---------------X--------|-----%-----|
T|-----------------------------------|-----------|
F|--X---X-X-----X-------X------------|-----------|

 ___________________________   ________________________________
 | 1.                          | 2.    6    > >   > >   >   > >   6
 |  e  s s s s s s e  e  q     |  s^s^s^s^s^s e   s s s e   s s^s^s^s^s^s
H|--H--------------O--O--------|--H-------------------r------------------|
S|-----X-X-X-X-X-X-------F-----|----X-X-X-X-X-X---X-X-e-X---X-X-X-X-X-X-X|
T|-----------------------------|----------------------s------------------|
F|--X--------------X--X--------|--X-------------------t------------------|

    q       e   e+  s s e   e   s s     s e  s s s e+  e   e   e   e
H|--C-----------C--------------------|-------------C-------H---H---H---|
S|----------X---------X-X---X---X-X--|--X-X--------------------X-------|
T|-----------------------------------|-------1-2-2---------------------|
F|--X-----------X--------------------|-------------X-------X-----------|

	e   e+  e   e   q+      e   e+      q       e   e   e   e   e   e
H|--C---C-----------C-----------C----|----------C---H---H---H---H---X--|
S|------------------X----------------|------------------X---X---X------|
T|-----------------------------------|---------------------------------|
F|--X---X-------X---------------X----|----------X-------X---X---X------|

                                            3
    E    s e   e+  e   e   e   e         e^^e^^e   e   e+  e   e   e   e
H|--C----------C---------------------|-----------------C-------H---H---H-|
S|-------X-X---------------X---------|-xxX--X----------------------X-----|
T|-----------------------------------|---------1---1---------------------|
F|--X----------X-------X-------------|-------------------------X---------|

    e   e+  e   e   q+      e   e+       e   e   e   e   e   e   e   e
H|--C---C-----------C-----------C----|-------H---H---H---H---H---H---X-|
S|------------------X----------------|-------------------X---X---X-----|
T|-----------------------------------|---------------------------------|
F|--X---X-------X---------------X----|---X---X---X---X---X---X---X-----|


This part was so tough, I hope I got it right =)
Exactly here is where the guitar stops and the drums and bass play alone.

(3:12)
        q       q
H|------C-------H--------|
S|2:------------X--------|
T|4:---------------------|
F|------X----------------|

Play both measures three times
         s  s  s  s  s  s  E     s        s  s  s  s  s  s  e   s  q
H|-------O--r-----O--r-----O--------|-----O--r-----O--r-----O----------|
S|5:o--xx---e---xx---e---xx---------|7:-xx---e---xx---e---xx-------X--o|
T|8:o-------s--------s--------------|8:------s--------s---------------o|
F|-------X--t--P--X--t--P--X-----P--|-----X--t--P--X--t--P--X---P------|

(Still in 7/8)                             (Guitar Solo) (3:21)
     s s s s s s  E    s s s^s^s^s^s^s     E     s e   e   e   s s e
H|---O-r---O-r----O--------------------|---R-------R---R---R---R---R----|
S|-xx--e-xx--e--xx---------F-X-X-X-X-X-|-----------X-------------X------|
T|-----s-----s-------------------------|--------------------------------|
F|---X-t-P-X-t-P--X----P-X-------------|---X-----X---------X------------|

       e   s s s s s s s s       e   s s e   e   s s s s s s
H|-----R---R---R---R---R----|----R---R---R---R---O-----O------|
S|5:-----------X-X---X---X--|7:----------X---------X-X---X-X--|
T|8:------------------------|8:-------------------------------|
F|-----X-----X--------------|----X-----X---------X-----X------|

               >     >   >
       e   s s s s s s s s       E     s e   e   e   s s e
H|-----O--------------------|----C-------R---R---R---R---R----|
S|5:-----------X-X-X-X-X-X--|7:----------X-------------X------|
T|8:------------------------|8:-------------------------------|
F|-----X---P-X--------------|----X-----X---------X------------|

      e    s s s s s s s s        e   s s e   e   e   s s e
H|----R----R---R---R---R----|-----R---R---R---R---R---R---R---|
S|5:-----------X-X---X---X--|7:-----------X-------------X-----|
T|8:------------------------|8:-------------------------------|
F|----X------X--------------|-----X-----X---------X-----------|

              >     >   >        >       >       >
      e   s s s s s s s s        e   e   e   e   e   e   e
H|----R---R-----------------|---------------------------------|
S|5:----------X-X-X-X-X-X---|7:------X-------X---X---X--------|
T|8:------------------------|8:--1-------2--------------------|
F|----X-----X---------------|----------------------------X----|

       E     s s s s e           e   s s e   e   e   s s e
H|-----C-------C-R---R------|----R---R---R---R---R---R---R----|
S|5:-----------X---X--------|7:----------X-------------X------|
T|8:------------------------|8:-------------------------------|
F|-----X-----X--------------|----X-----X---------X------------|

       e   s s s s s s s s       e   s s q       s s s s s s
H|-----R---R---R---R---R----|----R---R---C-------C-----C------|
S|5:-----------X-X---X---X--|7:----------X---------X-X---X-X--|
T|8:------------------------|8:-------------------------------|
F|-----X-----X--------------|----X-----X---------X-----X------|

       E     s e   s s e         e   s s e   e   e   s s s s
H|-----C-------R---R---R----|----R---R---R---R---R------------|
S|5:-----------X-----X------|7:----------X-----------X-X-X-X--|
T|8:------------------------|8:-------------------------------|
F|-----X-----X--------------|----X-----X---------X------------|

                   > >   >       >               >  >
       s s s s e   s s s s       s s s s q       s s s s s s
H|-------------O------------|------------O-------------O------|
S|5:---X-X-X---X---X-X-X-X--|7:--X-X-X---X-------X-X-X---X-X--|
T|8:------------------------|8:-------------------------------|
F|-----X---P-X--------------|----X-----X---------X---X--------|

       e   s s e   s s e         e   e s e   e   e   s s e
H|-----C---R---R---R---R----|----R---R---R---R---R---R---R----|
S|5:-----------X-----X------|7:----------X-------------X------|
T|8:------------------------|8:-------------------------------|
F|-----X-----X--------------|----X-----X---------X------------|

       e   s s s s s s s s       e   e s e   e   e   s s e
H|-----R---R---R---R---R----|----R---R---R---R---R---R---R----|
S|5:-----------X-X---X---X--|7:----------X-------------X------|
T|8:------------------------|8:-------------------------------|
F|-----X-----X--------------|----X-----X---------X------------|

               >   >   >                         >   >   >
       e   s s e   e   e         e   s s e   e   e   e   e
H|-----R---R---C-------C----|----C---C---C---C---C-------C----|
S|5:-----------X---X---X----|7:----------X-----------X---X----|
T|8:------------------------|8:-------------------------------|
F|-----X-----X--------------|----X-----X---------X------------|

               >   >   >
       e   s s e   e   e         e   s s e   e   e   s s e
H|-----C---C---C-------C----|----C---C---C---C---C---C---C----|
S|5:-----------X---X---X----|7:----------X-------------X------|
T|8:------------------------|8:-------------------------------|
F|-----X-----X--------------|----X-----X---------X------------|

(3:51)         >     >
       E     s E     E
H|-----C--------------------|
S|5:-----------X-----X------|
T|8:-----------3-----3------|
F|-----X-----X--------------|

Play both measures 4 times
      >       >       >     >              >       >     >
      q       q       E     E              q       E     E
H||--------------------------------|----------------------------||
S||7:o-X-------X-------X-----X-----|5:---X-------X-----X-------o||
T||8:o-3-------3-------3-----3-----|8:---3-------3-----3-------o||
F||--------------------------------|----------------------------||

Play both measures 4 times
       q       q+      q       q+        q       q+      q       q+
H||----C-------B---------------B----|------------B---------------B-----||
S||4:o------------------------------|---------------------------------o||
T||4:o------------------------------|---------------------------------o||
F||----X----------------------------|----------------------------------||

(4:17)
     e   e   e   e   e   e   e   e      e   e   e   e   e   e   e   e
H|---C---X---r---X-------O---r---X--|-------X-------X-------O---r---X--|
S|-----------e-------X-------s------|--(X---X---X)------X-------e------|
T|-----------s---------------e------|---------------------------s------|
F|---X-------t---------------t---X--|---X-----------------------t---X--|

     e   e   e   e   e   e   e   e      e   e   e   e   e   e   e   e
H|-------X---r---X-------O-------X--|-------X-------X-------O-------X--|
S|-----------e-------X--------------|--(X---X---X)------X--------------|
T|-----------s----------------------|----------------------------------|
F|---X-------t---------------P---X--|---X-----------------------P---X--|

     e   e   e   e   e   e   e   e     s s e   e   e   e   e   e   e
H|-------X---r---X-------O-------O--|------O-------O-------O-------X---|
S|-----------e-------X--------------|--X-X-------------X---------------|
T|-----------s----------------------|----------------------------------|
F|--X--------t---------------P------|------X---P---X---P---X---P---X---|

     e   e   e   e   e   e   e   e     e   e   e   e   q       q
H|---X---X---H---H---H---H---H---H--|--H---H---H---H-----------r-------|
S|----------------------------------|------------------F-------e-------|
T|----------------------------------|--------------------------s-------|
F|---X---X---X---X---X---X---X---X--|--X---X---X---X-----------t-------|

(4:31)
Cities full of hatred...
      q       E     s e   e   e   e     q       E     s e   e   e   e+
H||---C-------X-------X-------X------|--X-------X-------X-------X---C---|
S||o--X-------X-------X-------X------|--X-------X-------X-------X-------|
T||o---------------------------------|----------------------------------|
F||-----------------X-----X-------X--|----------------X-----X-------X---|

 _______________________________________________________________________
 | 1.
 |   e   e   e   e+  e   e   e   e+     e   e+  e   e   e   e+  e   e
H|-------C-------C-------C-------C--|-------C-------H---H---C-----------||
S|-----------X---------------X------|---------------X---X--------------o||
T|----------------------------------|----------------------------------o||
F|-------X-------X-------X-------X--|-------X---------------X-------X---||

 _______________________________________________________________________
 | 2.
 |   e   s s s s e   s s e   s s        s s e   s s e   s s s s e   e
H|-----------O---O-------C----------|---O---O-------C-------O-----------||
S|-------X-X---------X-X-----X-X----|-----------X-X-----X-X---------X--o||
T|----------------------------------|----------------------------------o||
F|-------------P-----P--------------|---X-P-X-------X-------X-P-X-------||

 _______________________________________________________________________
 | 3.                     3
 |   e   e   e   e   q^^^^q^^^^q        e   e   e   e   e   e   e   e
H|-----------X---X---C----C----C----|---X---X---X---X-------------------|
S|-----------X----------------------|-------X---X---X-------F---F-------|
T|----------------------------------|-----------------------------------|
F|-------X-----------X----X----X----|-------------------X-----------X---|

     q+      q       h                  q+      q       q       q
H|---C---------------r--------------|---C---------------r--------------|
S|-------------------e--------------|-------------------e--------------|
T|-------------------s--------------|-------------------s--------------|
F|---X---------------t--------------|---X---------------t-------P------|

     Q           e   h                  q+      q       h
H|---c-----------c---r--------------|---C---------------r--------------|
S|-------------------e--------------|-------------------e--------------|
T|-------------------s--------------|-------------------s--------------|
F|---X-----------X---t--------------|---X---------------t--------------|

(5:00)
      q       E     s e   e   e   e      q       E     s e   e   e   e+
H||---C-------X-------X-------X------|---X-------X-------X-------X------|
S||o--X-------X-------X-------X------|---X-------X-------X-------X------|
T||o---------------------------------|----------------------------------|
F||-----------------X-----X-------X--|-----------------X-----X-------X--|

 ______________________________________________________________________
 | 1.                                               > >   > >   >
 |   e   e   e   s s e   s s s s e      s s e   e   s s s s s s e   e
H|-------X---X-------C-----------C--|-------C---C----------------------||
S|-------X---X---X-X-----X-X-X-X----|---X-X---------X-X-X-X-X-X-X-----o||
T|----------------------------------|---------------------------------o||
F|---------------------------X---X--|-------X---X-------------------X--||

 ______________________________________________________________________
 | 2.
 |   q       e   e   q       e   e      q       e   e   e   e   q
H|---------------C---C-----------C--|---C-----------C---C---C---C------||
S|-----------F---------------F------|-----------F---------------------o||
T|----------------------------------|---------------------------------o||
F|---------------X---X-----------X--|---X-----------X---X---X---X------||

     q      e   e   q        e   e      q       e   e   e   e   q
H|---C------C-------X--------C------|---X-------C-------X-------C------|
S|----------------------------------|-----------X---------------X------|
T|----------------------------------|----------------------------------|
F|---X----------X---X------------X--|---X-----------X---X---X----------|

     q       e   e   q       e   e      q       e   s s s s s s
H|---X-------C-------X-------C------|---C-------C---------------|
S|-----------X---------------X------|3:---------X---X-X---------|
T|----------------------------------|4:-----------------2-2-3-3-|
F|---X-----------X---X-----------X--|---X-----------------------|

     q       e   e   q       e   e      e   e   e   e   e   e
H|---C-------X-------R-------C------|---R-------C-------C---C---|
S|4:---------X---------------X------|3:---------X---X-----------|
T|4:--------------------------------|4:-------------------------|
F|---X-----------X---X-----------X--|---X---X-----------X---X---|

     q       e   e   q       e   e      e   e   e   e   e   e
H|---C-------C-------R-------C------|---R-------C-------C-------|
S|4:---------X---------------X------|3:---------X---X-------X---|
T|4:--------------------------------|4:-------------------------|
F|---X-----------X---X-----------X--|---X---X---X---X---X---X---|

(5:31)
slowing down...
     q       e   e   q       e   e      q+      q       h
H|---C-----------C---C-----------C--|---C---------------r--------------|
S|4:---------F---------------F------|-------------------e--------------|
T|4:--------------------------------|-------------------s--------------|
F|---X-----------X---X-----------X--|---X---------------t--------------|

   Ac. guitar   (Fermata)               q+      q       h
H|----------------------------------|---C---------------r--------------|
S|----------------------------------|-------------------e--------------|
T|----------------------------------|-------------------s--------------|
F|----------------------------------|---X---------------t--------------|


KEY:

 Hi-hats & Cymbals  -O-X-H--C-R-B-S-T-c-
             Snare  -X-S-R-F------------
               Tom  -1-2-3-4-5-6-X------
       Foot Pedals  -X-P----------------


Hi-hats & Cymbal line:

Hi-hats  O - OPEN HH
         X - CLOSED HH
         P - PEDAL HH
         H - HALF OPEN HH
Cymbals  C - CRASH
         c - CRASH CHOKE
         R - RIDE
         B - RIDE BELL
         S - SPLASH
         T - CHINA (AKA TRASH)

Snare line:
     X - SINGLE HIT
     R - RIMSHOT
     F - FLAM (Hit with both sticks, one slightly before the other)
     S - SIDE STICK
     x - GRACE NOTE (hit snare slightly and right before the prime note)

Tom line:
        Notated by number. 1 being the highest sounding to the lowest tom.
        (The numbers depend on how many toms Neil is using in any given song,
        it's up to you to fit them in your drumset.)
        X - Floor tom
 NOTE - Originally this key had two tom lines, but I decided to use
        just one too keep it simpler.
        A second tom line will be added to the bar ONLY if two toms are
        played at once.
 Foot Pedal line:
        X - KICK DRUM
        P - Hi-hat pedal
        When the right and left kick drums are being used together they will
        be notated with a right (R) or a left (L)

Rhythm:
w whole note                    W dotted whole note
h half note                     H dotted half note
q quarter note                  Q dotted quarter note
e eighth note                   E dotted eighth note
s sixteenth note                S dotted sixteenth note
t thirty-second note            T dotted thirty-second note

% Repeat last measure

Fermata - Hold the note at pleasure

> - Accent: When a note is given special emphasis

||----||
||o--o||  Repeat
||o--o||  Signs
||----||
comments
We did not receive enough feedback on this tab! Please rate:
print report bad tab
1 2 3 4 5
I want to post or [tab]
guest
You may want to rate the tab now too:
select rating
Please do not post tabs as comments. Select "correction" instead!