Oops, an error
Loading. Please wait.

Alien Shore Bass Tab

by Rush
1,248 views 9 this week
no commentswrite comment
1 2 3 4 5
excellent!
x 2
Autoscroll
+/-
esc
set tempo
stop
Contributor
Hey! There's an official Ultimate Guitar app which is ideal
for learning songs when you're away from computer. Get the app
WARNING: You are trying to view
                                    content from Ultimate-Guitar.com
                                    in an unauthorized application,
                                    which is prohibited.

                                    Please use an official Ultimate
                                    Guitar Tabs application for iPhone,
                                    iPad or Android to access legitimate
                                    chords, guitar, bass, and drum tabs
                                    from Ultimate-Guitar.com database.

                                    Type "ultimate guitar tabs" in Apple
                                    App Store's or Android Market's
                                    search to find the application.
++++++++++++++++++++++++++++++++++++++++++++++++++++++++++++++++++++++++++++
Alien Shore - Rush
++++++++++++++++++++++++++++++++++++++++++++++++++++++++++++++++++++++++++++

Originally transcribed by Sean Jones


--||-------------|-----------------|-------------|-----------|------------|
9\||-------------|-----------------|-------------|-----------|------------|
--||-------------|---------4-5-4---|---------4-5-|-5-5-------|------------|
--||-0-3-3-3-3-3-|-3-2-3-3-------5-|-0-3-3-3-----|-----5-5-3-|-0-0-3-3----|

------|-------------------|-------------|-----------||------------------|
------|-------------------|-------------|-----------||------------------|
------|-----------4-5-4---|---------4-5-|-5-5-------||-------------5----|
3-3-3-|-3-2-2-3-3-------5-|-0-3-3-3-----|-----5-5-3-||-0-0-0-0-0-3------|

--|---------------|-----------------|---------------||------------------|
--|---------------|---------------9-|--\5-5-5-5-5-7-||*-----------------|
9-|--\5-5-5-5-5-7-|-------------5---|---------------||*-------------5---|
--|---------------|-0-0-0-0-0-3-----|---------------||--0-0-0-0-0-3-----|

--|---------------|-----------------|------------------||---------------|
--|---------------|---------------9-|--\5-5-5-5-5-5-7-*||---------------|
9-|--\5-5-5-5-5-7-|-------------5---|-----------------*||---------------|
--|---------------|-0-0-0-0-0-3-----|------------------||-0-0-0-0-0-3---|

----|-----------------|-----------------|-----------------|-------------|
----|-----------------|---------------9-|--\5-5-5-5-5-5-7-|-------------|
5-9-|--\5-5-5-5-5-5-7-|-------------5---|-----------------|-------------|
----|-----------------|-0-0-0-0-0-3-----|-----------------|-0-0-0-0-0---|

------|-------------------|-----------------|---------r-----|-----------|
------|-------------------|---------------9-|--\5-5-5-e-5-5-|-----------|
--5-9-|--\5-5-5-5-5-5-5-7-|-------------5---|---------s-----|-----------|
3-----|-------------------|-0-0-0-0-0-3-----|---------t-----|-0-0-0-0---|

--------|-----------------|-----------------|-------------------|-------|
--------|-----------------|---------------9-|--\5-5-5-5-5-5-5-7-|-------|
----5-9-|--\5-5-5-5-5-5-7-|-------------5---|-------------------|-------|
0-3-----|-----------------|-0-0-0-0-0-3-----|-------------------|-0-0---|


s e q e e e+  h s s s s e s s   e s s e q e e e+  h s s s s s s s s
------------|-----------------|-----------------|-------------------|---|
------------|-----------------|---------------9-|--\5-5-5-5-5-7-5-7-|---|
--------5-9-|--\5-5-5-5-5-5-7-|-------------5---|-------------------|---|
0-0-0-3-----|-----------------|-0-0-0-0-0-3-----|-------------------|---|

----------------|-------------------|-----------------|-----------------|
----------------|-------------------|---------------9-|--\5-5-5-5-5-5---|
------------5-9-|--\5-5-5-5-5-5-5-7-|-------------5---|-----------------|
0-0-0-0-0-3-----|-------------------|-0-0-0-0-0-3-----|-----------------|

----|-----------------|-----------------|-----------------|-------------|
5-7-|-----------------|-----------------|---------------9-|--\5-5-5-5---|
----|-------------5-9-|--\5-5-5-5-5-5-7-|-------------5---|-------------|
----|-0-0-0-0-0-3-----|-----------------|-0-0-0-0-0-3-----|-------------|


--------||--------------|----------------||-------------|-----------r---|
5-5-5-7-||*-------------|---------------*||-------------|-----------e---|
--------||*-------------|---------0-2-4-*||-------------|---------0-s---|
--------||--0-2-2-2-2-3-|---3-3-3--------||-0-2-2-2-2-3-|---3-3-3---t---|


------|-------------|---------------------||--------------|-------------|
------|-------------|---------------------||*-------------|-------------|
0-2-4-|-------------|---------0-0-0-0-2-4-||*-------------|---------0---|
------|-0-2-2-2-2-3-|---3-3-3-------------||--0-2-2-2-2-3-|---3-3-3-----|

-------||-------|---------------||-----9\--------r-------|--------------|
------*||-------|---------------||---------------e-------|-----9\-------|
0-2-4-*||-------|-------0-0-2-4-||-------5-5-5-5-s-5-5-7-|-------5-5----|
-------||-0-2-3-|---2-3---------||-0-0-----------t-------|-0-0----------|


--r-------|-----9\--------r-------|-----------------||-----9\------r----|
--e-------|---------------e-------|-----9\----------||-------------e----|
5-s-5-5-7-|-------5-5-5-5-s-5-5-7-|-------5-5-5-5-5\||-------5-5-5-s----|
--t-------|-0-0-----------t-------|-0-0-------------||-0-0---------t----|

------|-------------r-------|-----9\------r-------|---------r-------|---|
------|-----9\------e-------|-------------e-------|-----9\--e-------|---|
5-5-7-|-------5-5-5-s-5-5-7-|-------5-5-5-s-5-5-7-|-------5-s-5-5-7-|---|
------|-0-0---------t-------|-0-0---------t-------|-0-0-----t-------|---|


----9\------r-------|-------------r-------|-----9\------r-------|-------|
------------e-------|-----9\------e-------|-------------e-------|-------|
------5-5-5-s-5-5-7-|-------5-5-5-s-5-5-7-|-------5-5-5-s-5-5-7-|-------|
0-0---------t-------|-0-0---------t-------|-0-0---------t-------|-0-0---|

9\7-9-7-9---------|-----9\------r-------|-------------r-------|-----9---|
----------7-9-7-9-|-------------e-------|-----9\------e-------|---------|
------------------|-------5-5-5-s-5-5-7-|-------5-5-5-s-5-5-7-|---------|
------------------|-0-0---------t-------|-0-0---------t-------|-0-0-----|


\------r-------|-----------------|-----9\------r-------|----------------|
-------e-------|-----9\----9\--9\|-------------e-------|-----9\---------|
-5-5-5-s-5-5-7-|-----------------|-------5-5-5-s-5-5-7-|-------5-5-5----|
-------t-------|-0-0---0-0---0---|-0-0---------t-------|-0-0------------|

r-------|-----9\------r-------|-----7-9-----7-9-----||--------------|---|
e-------|-------------e-------|-------------------9\||*-------------|---|
s-5-5-7-|-------5-5-5-s-5-5-7-|---------------------||*-------------|---|
t-------|-0-0---------t-------|-0-0-----0-0-----0---||--0-2-2-2-2-3-|---|

-----------------||-------|---------------||----------------|-----------|
----------------*||-------|---------------||*---------------|-----------|
--------0-0-2-4-*||-------|-------0-0-2-4-||*-0-0-0-2-0-2-3-|---3-3-3---|
--3-3-3----------||-0-2-3-|---2-3---------||----------------|-----------|


----|-----------------------------------------||-------------|----------|
----|-6:-------------------------------------*||-------------|----------|
2-0-|-4:-4-4-4-5-5-5-5-5-5-5-5-5-5-5-5-5-5-7-*||-------------|----------|
----|-----------------------------------------||-0-3-3-3-3-3-|-3-2-3----|

----------|-------------|-----------|---------------|-------------------|
----------|-------------|-----------|---------------|-------------------|
--4-5-4---|---------4-5-|-5-5-------|---------------|-----------4-5-4---|
3-------5-|-0-3-3-3-----|-----5-5-3-|-0-0-3-3-3-3-3-|-3-2-2-3-3---------|

--|-------------|-----||-------|-------------|-------------|------------|
--|-------------|-----||-------|-------------|-------------|------------|
--|---------4-5-|-5---||-------|-----4-5-4---|-------------|------------|
5-|-0-3-3-3-----|---3/||-0-3-3-|---0-------5-|-0-3-3-3-3-3-|-3-3-3-2----|

----------|-----------------|-----------------|---r-------------|-------|
----------|-----------------|-----------------|---e-------------|-------|
----------|-----------------|---------4-5-4---|---s-------------|-------|
3-5-5-3-5-|-0-0-3-3-3-3-3-2-|-5-5-3-5-------5-|-0-t-0-3-0-2-2-3-|-3-3---|

------------------|---------------------|-------------------|-----------|
------------------|---------------------|-------------------|-----------|
------------------|---------------------|-------------4-5-4\|-----------|
3-3-3-3-5-7^-5-7^-|-0-0-0-0-2-2-2-2-2-2-|-3-3-3-3-3-3-------|-0-0-2-2---|


-|---------------------|---r-------------|-----------------|---------r--|
-|---------------------|---e-------------|-----------------|---------e--|
-|-------------5---4-5-|---s-------------|---------5-5-4-5-|---------s--|
-|-3-3-3-3-3-2---5-----|-0-t-0-3-3-3-3-3-|-3-3-2-2---------|-0-0-3-3-t--|

--|-----------------|---------r---|
--|-----------------|---------e---|
--|-----7-5-5-7-5---|---------s---|
3-|-3-3/----------5-|-0-0-2-2-t-2-|


|---------------------|---------r---|---------------------||--------|
|---------------------|---------e---|---------------------||--------|
|-------------4-5-4---|---------s---|-------------5-7-5-3-||-0-0----|
|-3-3-3-3-3-3-------5-|-0-0-2-2-t-2-|-3-3-0-3-3-0---------||--------|

----------|-------------|-------------|-------------||-----9\r---r------|
----------|-------------|-------------|-------------||-----9\e---e------|
0-2-0-2-3-|---3-3-3-2-0-|-4-4-4-5-5\--|-------------||-------s-5-s-5----|
----------|-------------|-----------2-|---2-3-3-0-2-||-0-0---t---t------|


----|-----9-9-9-9-9\------------|-----------------------|-----7-9-------|
----|---------------------------|-----9-----------------|---------------|
5-7-|---------------5-5-5-5-5-7-|-----------------------|---------------|
----|-0-0-----------------------|-0-0---0-0-0-0-0-0-0-0-|-0-0-----0-0---|


7-9-----||-------r-----r-------|-----9\--------r-------|-------r--------|
--------||-----9\e-----e-------|---------------e-------|-----9\e--------|
--------||-------s-5-5-s-5-5-7-|-------5-5-5-5-s-5-5-7-|-------s-5-5----|
----0-0-||-0-0---t-----t-------|-0-0-----------t-------|-0-0---t--------|

r-------|-----9\7-9-7-9---------|-----9\r-----r-------|-------r-----r---|
e-------|---------------7-9-7-9-|-------e-----e-------|-----9\e-----e---|
s-5-5-7-|-----------------------|-------s-5-5-s-5-5-7-|-------s-5-5-s---|
t-------|-0-0-------------------|-0-0---t-----t-------|-0-0---t-----t---|

------|---------------r-------|---7-9-----7-9---7-9-|-----9\--------r---|
------|-----9\--------e-------|---------------------|---------------e---|
5-5-7-|-------5-5-5-5-s-5-5-7-|---------------------|-------5-5-5-5-s---|
------|-0-0-----------t-------|-0-----0-0-----0-----|-0-0-----------t---|

------|-------r-----r-------|-----9\--------r-------|-------------------|
------|-----9\e-----e-------|---------------e-------|-----9\------------|
5-5-7-|-------s-5-5-s-5-5-7-|-------5-5-5-5-s-5-5-7-|-------5-5-5-5-5---|
------|-0-0---t-----t-------|-0-0-----------t-------|-0-0---------------|


--|-----11\r-----r-------|-------r-----r-------|-----9\-----------------|
--|--------e-----e-------|-----9\e-----e-------|------------------------|
7-|--------s-5-5-s-5-5-7-|-------s-5-5-s-5-5-7-|-------5-5-5-5-5-5-5----|
--|-0-0----t-----t-------|-0-0---t-----t-------|-0-0--------------------|

--|---------------7-9-7---9-||--------------|------------------||-------|
--|---------------------9---||*-------------|-----------------*||-------|
7-|-5-5-5-5-5-5-5-----------||*-------------|---------0-0-2-4-*||-------|
--|-------------------------||--0-2-2-2-2-3-|---3-3-3----------||-0-2---|


--|---------------|---------------|---------------|---------------------|
--|---------------|---------------|---------------|-6:------------------|
--|-------0-0-2-4-|-0-0-0-2-0-2-3-|---3-3-3-3-2-0-|-4:-4-4-4-5-5-5-5----|
3-|---2-3---------|---------------|---------------|---------------------|


------|------------------|-------|------------------------|-------------|
------|-4:---------------|-------|-6:---------------------|-4:----------|
5-7-5-|-4:-0-0-0-2-0-2-3-|-----4-|-4:---4-4-5-5-5-5-7-7-5-|-4:-0-0-0----|
------|------------------|-------|------------------------|-------------|

--------|-----------|------------------|------------------|---|---||----|
--------|-----------|-6:-------------9\|-4:---------------|---|---||----|
2-0-2-3-|---3-3-2-0-|-4:-4-4-4-5-5-5/--|-4:-0-0-0-2-0-2-3-|---|---||----|
--------|-----------|------------------|------------------|---|---||----|

+++++++++++++++++++++++++++++++++++++++++++++++++++++++++++++++++++++++++++++
comments
We did not receive enough feedback on this tab! Please rate:
print report bad tab
1 2 3 4 5
I want to post or [tab]
guest
You may want to rate the tab now too:
select rating
Please do not post tabs as comments. Select "correction" instead!