Oops, an error
Loading. Please wait.

Anthem Bass Tab

by Rush
ver2
ver2

Whole song

Interactive

More versions @911Tabs.com
415 views 3 this week
no commentswrite comment
1 2 3 4 5
excellent!
x 3
Autoscroll
+/-
esc
set tempo
stop
Contributor
Difficulty
advanced
Hey! There's an official Ultimate Guitar app which is ideal
for learning songs when you're away from computer. Get the app
WARNING: You are trying to view
                                    content from Ultimate-Guitar.com
                                    in an unauthorized application,
                                    which is prohibited.

                                    Please use an official Ultimate
                                    Guitar Tabs application for iPhone,
                                    iPad or Android to access legitimate
                                    chords, guitar, bass, and drum tabs
                                    from Ultimate-Guitar.com database.

                                    Type "ultimate guitar tabs" in Apple
                                    App Store's or Android Market's
                                    search to find the application.
G|--------------------------------------9-------7-9-7--------|
D|o---------------------------------------------------9-7----|
A|o-----------------3-------5---7-------------------------10-|
E|--3-------5------------------------------------------------|
    1 e + a 2 e + a 3 e + a 4 e 1 e + a 2 e + a 3 e + a 4 e 

G|---------9-------7-9-7----------------9-------7-9-7---------|
D|-----------------------9-7--------------------------9-7----o|
A|-7-------------------------10-7-------------------------10-o|x5
E|------------------------------------------------------------|
   1 e + a 2 e + a 3 e + a 4 e  1 e + a 2 e + a 3 e + a 4 e 

G|---------------------------------------------------------|
D|---------------------------------------------------------|
A|---------3---5---------3---5---------3---5---------------|
E|-3---5---------3---5---------3---5---------0-------------|
   1 + 2 + 3 + 4 1 + 2 + 3 + 4 1 + 2 + 3 + 4 1 + 2 + 3 + 4    

Rest

Main Riff 0:38
G|-------------------------|-----------------------(x3)|-------------------------|
D|-5---7---7---------------|o-------------------------o|-------------------------|
A|-------------3---5---5---|o---------5-6-7---7---5---o|-------------3---5---5-5-|
E|-------------------------|--0---0-----------------7--|-3---5---5-5-------------|
   1 + 2 + 3 + 4 + 5 + 6 +    1 + 2 + 3 + 4 + 5 + 6 +    1 + 2 + 3 + 4 + 5 + 6 +

G|---------------------------|-------------------------------------------------|
D|o-------------------------o|-------------------------------------------------|
A|o---------5-6-7---7-5-----o|---------5-6-7---7-7-5---------------3---5---5-5-|
E|--0---0---------------7-5--|-0---0-----------------7-3---5---5-5-------------|
    1 + 2 + 3 + 4 + 5 + 6 +    1 + 2 + 3 + 4 + 5 + 6 + 1 + 2 + 3 + 4 + 5 + 6 +    

Verse 0:53
G|-------------------------------------------------|
D|---------------------5-7-5---------5-------5---5-|
A|-7---------7-------7-----------------5---5---5---|
E|-------------7---7-------------------------------|
   1 + 2 + 3 + 4 + 5 + 6 + 1 + 2 + 3 + 4 + 5 + 6 + 

G|---------5-6-7---7-7-5---------------------------------------------------|
D|-7---7-7---------------7---------------------------------------------7-6-|
A|-------------------------7---7-------7---7---4-5-7---------7-------7-----|
E|-------------------------------0---0-------7-----------------7---7-------|
   1 + 2 + 3 + 4 + 5 + 6 + 1 + 2 + 3 + 4 + 5 + 6 + 1 + 2 + 3 + 4 + 5 + 6 + 

G|-----------------------------------5-6-7-5-------------------9-7-----7-9-|
D|-5---------5-------5---5-7---7-7-7---------7-6-5-----------------9-9-----|
A|-------------5---5---5---------------------------7-----------------------|
E|-------------------------------------------------------0-----------------|
   1 + 2 + 3 + 4 + 5 + 6 + 1 + 2 + 3 + 4 + 5 + 6 + 1 + 2 + 3 + 4 + 5 + 6 + 

Chorus 1:06
G|-------------------------------------------------------------------------|
D|-5-----------------5---5-7-------------7---7-----------------------------|
A|-------------5-------5---------------7---------7-3-----2-3-4-5-----5-5-5-|
E|-------------------------------------------------------------------------|
   1 + 2 + 3 + 4 + 5 + 6 + 1 + 2 + 3 + 4 + 5 + 6 + 1 + 2 + 3 + 4 + 5 + 6 + 

G|-------------9-7---------------------------------------------------------|
D|-----------------9-7-5-4-5---------5-------5---5-7-----7---7---7---7-----|
A|-7-----------------------------------5---5---5---------------7-----------|
E|-------0-----------------------------------------------------------------|
   1 + 2 + 3 + 4 + 5 + 6 + 1 + 2 + 3 + 4 + 5 + 6 + 1 + 2 + 3 + 4 + 5 + 6 + 

G|-------------------------------------------------------------------------|
D|-------------------------------------------------------------------------|
A|-3-3-3-0-3-4-5-----------3-3-3-0-3-4-5-----------3-3-3-0-3-4-5-----------|
E|-----------------5-\---------------------5-\---------------------5-\-----|
   1 + 2 + 3 + 4 + 5 + 6 + 1 + 2 + 3 + 4 + 5 + 6 + 1 + 2 + 3 + 4 + 5 + 6 + 

Interlude 1:22
G|-----------------------(x3)|-------------------------|
D|o-------------------------o|-------------------------|
A|o---------5-6-7---7---5---o|-------------3---5---5-5-|
E|--0---0-----------------7--|-3---5---5-5-------------|
   1 + 2 + 3 + 4 + 5 + 6 +    1 + 2 + 3 + 4 + 5 + 6 +

G|-----------------------(x3)|-------------------------|
D|o-------------------------o|-------------------------|
A|o---------5-6-7---7---5---o|-------------3---5---5---|
E|--0---0-----------------7--|-3---5---5---------------|
   1 + 2 + 3 + 4 + 5 + 6 +    1 + 2 + 3 + 4 + 5 + 6 +

G|-------------------------------------------------------------------------|
D|-------------------------------------------------------------------------|
A|-7-----------------------7-----------------------7-----------------------|
E|-----0-----------------------0-----------------------0-------------------|
   1 + 2 + 3 + 4 + 5 + 6 + 1 + 2 + 3 + 4 + 5 + 6 + 1 + 2 + 3 + 4 + 5 + 6 + 

G|-------------------------------------------------------------------------|
D|-5-----------------------------------------------------------------------|
A|-------------5-----------7---------------------------7-------------------|
E|-----------------------------0-------------------0-----------------------|
   1 + 2 + 3 + 4 + 5 + 6 + 1 + 2 + 3 + 4 + 5 + 6 + 1 + 2 + 3 + 4 + 5 + 6 + 

G|-------------------------------------------------|
D|-------------------------5-----------------------|
A|-7-----------------------------------5-----------|
E|-----0-------------------------------------------|
   1 + 2 + 3 + 4 + 5 + 6 + 1 + 2 + 3 + 4 + 5 + 6 + 

Verse 1:49
G|---------------------------------------------------------5-6-7---7-7-5---|
D|---------------------7-6-5-----5-----------5-5-6-7---7-7---------------7-|
A|-7-----------------7---------------5-5---5-------------------------------|
E|-------------7---7-------------------------------------------------------|
   1 + 2 + 3 + 4 + 5 + 6 + 1 + 2 + 3 + 4 + 5 + 6 + 1 + 2 + 3 + 4 + 5 + 6 + 

G|-------------9-7-------7-------------------------------------------------|
D|-----------------9-7-9-----------------------7-6-5---5-----5-------5-5-6-|
A|-7-----------------------7---7-----7-------7-----------------5---5-------|
E|-------0-----------------------------7---7-------------------------------|
   1 + 2 + 3 + 4 + 5 + 6 + 1 + 2 + 3 + 4 + 5 + 6 + 1 + 2 + 3 + 4 + 5 + 6 + 

G|-----------5-6-7-6-5-----------------9-7---7-----|
D|-7-----7-------------7-5-----------------9---9-7-|
A|-----7-------------------7-----------------------|
E|-------------------------------0-----------------|
   1 + 2 + 3 + 4 + 5 + 6 + 1 + 2 + 3 + 4 + 5 + 6 + 

Chorus 2:03
G|-------------------------------------------------------------------------|
D|-5-----------------5-5-6-7-------------7---7-----------------------------|
A|-------------5---5-------------------7-----------3-------3-4-5-------5-6-|
E|-------------------------------------------------------3-----------5-----|
   1 + 2 + 3 + 4 + 5 + 6 + 1 + 2 + 3 + 4 + 5 + 6 + 1 + 2 + 3 + 4 + 5 + 6 + 

G|-------------9-9-9-9-7---------------------------------------------------|
D|-----------------------9-5-----------------5-5-6-7-------------7---7-----|
A|-7-----------------------------------5---5-------------------7-----------|
E|-------0-----------------------------------------------------------------|
   1 + 2 + 3 + 4 + 5 + 6 + 1 + 2 + 3 + 4 + 5 + 6 + 1 + 2 + 3 + 4 + 5 + 6 + 

G|-------------------------------------------------------------------------|
D|-------------------------------------------------------------------------|
A|-3-3-3-0-3-4-5-----------3-3-3-0-3-4-5-----------3-3-3-0-3-4-5-----------|
E|-----------------5-\---------------------5-\---------------------5-/-----|
   1 + 2 + 3 + 4 + 5 + 6 + 1 + 2 + 3 + 4 + 5 + 6 + 1 + 2 + 3 + 4 + 5 + 6 + 

Interlude 2:18
G|-------------------------------------------------------------------------|
D|-------------------------------------------------------------------------|
A|-------7-----------7-----------7-----------7-----------7-----------7-----|
E|-0-----------0-----------0-----------0-----------0-----------0-----------|
   1 + 2 + 3 + 4 + 5 + 6 + 1 + 2 + 3 + 4 + 5 + 6 + 1 + 2 + 3 + 4 + 5 + 6 + 


G|--------------------------|
D|-------------------5------|
A|-------7-----3--5---------|
E|-0------------------------|
   1 + 2 + 3 + 4 + 5 + 6 +  

Solo 2:25
G|-------------------------------------------------------------------------|
D|-------------------------------------------------------------------5-----|
A|-7---7-----765---5-----567---7-----765---5-------7---7-----765---5-----5-|
E|-------7-----------5-----------7-----------5-----------7-----------------|
   1 + 2 + 3 + 4 + 5 + 6 + 1 + 2 + 3 + 4 + 5 + 6 + 1 + 2 + 3 + 4 + 5 + 6 + 

G|-------------------------------------------------------------------------|
D|-------------------------------------------5-----------------------------|
A|-7---7-----7-5-------3-5-7---7---7-6-5---5-------7---7---7-6-5---5-------|
E|-------7-------0-3-5-----------7-----------------------7-----------5---5-|
   1 + 2 + 3 + 4 + 5 + 6 + 1 + 2 + 3 + 4 + 5 + 6 + 1 + 2 + 3 + 4 + 5 + 6 + 

G|-------------------------------------------9-7---------------------------|
D|-------------------5-4---------7-5---7-5-7-----9---------------5---5---5-|
A|-7---7---7-6-5---5-----5-7-5-7-----7-------------7---7---7-6-5---5---5---|
E|-------7-----------------------------------------------7-----------------|
   1 + 2 + 3 + 4 + 5 + 6 + 1 + 2 + 3 + 4 + 5 + 6 + 1 + 2 + 3 + 4 + 5 + 6 +

G|-------------------------------------------------9-7-9-7---7-------------|
D|-------------------------------------------5---5---------9---9-7-9-----5-|
A|-7---7---7-6-5---5---5---7---7---7-6-5---5---5---------------------5-7---|
E|-------7-------5---5---5-------7-----------------------------------------|
   1 + 2 + 3 + 4 + 5 + 6 + 1 + 2 + 3 + 4 + 5 + 6 + 1 + 2 + 3 + 4 + 5 + 6 + 

G|-------9-7---------------------9-7---------------------9-7---------------|
D|-----------9-5---7-----------------9-5---7-----------------9-5---7-------|
A|-7---7---------------5-6-7---7-------------0-5-6-7---7-------------0-5-6-|
E|-------------------------------------------------------------------------|
   1 + 2 + 3 + 4 + 5 + 6 + 1 + 2 + 3 + 4 + 5 + 6 + 1 + 2 + 3 + 4 + 5 + 6 + 

G|-9---9---9---9---9---9---|
D|-------------------------|
A|---7---7---7---7---7---7-|
E|-------------------------|
   1 + 2 + 3 + 4 + 5 + 6 + 

Chorus Riff
G|-------------------------------------------------------------------------|
D|-5-----------------5-5-6-7-------------7---7-----------------------------|
A|-------------5---5-------------------7-----------3-------3-4-5-------5-6-|
E|-------------------------------------------------------3-----------5-----|
   1 + 2 + 3 + 4 + 5 + 6 + 1 + 2 + 3 + 4 + 5 + 6 + 1 + 2 + 3 + 4 + 5 + 6 + 

G|-------------9-9-9-9-7---------------------------------------------------|
D|-----------------------9-5-----------------5-5-6-7-------------7---7-----|
A|-7-----------------------------------5---5-------------------7-----------|
E|-------0-----------------------------------------------------------------|
   1 + 2 + 3 + 4 + 5 + 6 + 1 + 2 + 3 + 4 + 5 + 6 + 1 + 2 + 3 + 4 + 5 + 6 + 

G|-------------------------------------------------------------------------|
D|-------------------------------------------------------------------------|
A|-3-3-3-0-3-4-5-----------3-3-3-0-3-4-5-----------3-3-3-0-3-4-5-----------|
E|-----------------5-\---------------------5-\---------------------5-/-----|
   1 + 2 + 3 + 4 + 5 + 6 + 1 + 2 + 3 + 4 + 5 + 6 + 1 + 2 + 3 + 4 + 5 + 6 + 

Main Riff 3:09
G|-------------------------------------------------------------------------|
D|-------------------------------------------------------------------------|
A|---------5-6-7---7---5-----------5-6-7---7-5-------------5-6-7---7-5-7---|
E|-0---0-----------------7-0---0---------------7-5-0---0-----------------5-|
   1 + 2 + 3 + 4 + 5 + 6 + 1 + 2 + 3 + 4 + 5 + 6 + 1 + 2 + 3 + 4 + 5 + 6 +   

G|-------------------------|-----------------------(x3)|-------------------------|
D|-------------------------|o-------------------------o|-------------------------|
A|-------------3---5---5---|o---------5-6-7---7---5---o|-------------3---5---5---|
E|-3---5---5---------------|--0---0-----------------7--|-3---5---5---------------|
   1 + 2 + 3 + 4 + 5 + 6 +    1 + 2 + 3 + 4 + 5 + 6 +    1 + 2 + 3 + 4 + 5 + 6 +

Verse 3:22
G|---------------------------------------------------------5-6-7---7-775---|
D|---------------------7-6-5---------5---------5-6-7---7-7---------------7-|
A|-7---------7-------7-----------------5---5-5-----------------------------|
E|-------------7---7-------------------------------------------------------|
   1 + 2 + 3 + 4 + 5 + 6 + 1 + 2 + 3 + 4 + 5 + 6 + 1 + 2 + 3 + 4 + 5 + 6 + 

G|-------------9-7-------7-|
D|-----------------9-7-9---|
A|-7-----------------------|
E|-------0-----------------|
   1 + 2 + 3 + 4 + 5 + 6 + 

G|---------------------------------------------------------5-6-7-6-5-------|
D|---------------------7-6-5---------5---------5-6-7---7-7-----------7-6-5-|
A|-7---------7-------7-----------------5---5-5-----------------------------|
E|-------------7---7-------------------------------------------------------|
   1 + 2 + 3 + 4 + 5 + 6 + 1 + 2 + 3 + 4 + 5 + 6 + 1 + 2 + 3 + 4 + 5 + 6 + 

G|-------------9---9-7-----|
D|-----------------------9-|
A|-7-----------------------|
E|-------0-----------------|
   1 + 2 + 3 + 4 + 5 + 6 + 

Chorus 3:36
G|-------------------------------------------------------------------------|
D|-5-----------------5-5-6-7-------------7---7-----------------------------|
A|-------------5---5-------------------7-----------3-------3-4-5-------5-6-|
E|-------------------------------------------------------3-----------5-----|
   1 + 2 + 3 + 4 + 5 + 6 + 1 + 2 + 3 + 4 + 5 + 6 + 1 + 2 + 3 + 4 + 5 + 6 + 

G|-------------799-9-797---------------------------------------------------|
D|-----------------------9-5-----------------5-5-6-7-------------7---7-----|
A|-7-----------------------------------5---5-------------------7-----------|
E|-------0-----------------------------------------------------------------|
   1 + 2 + 3 + 4 + 5 + 6 + 1 + 2 + 3 + 4 + 5 + 6 + 1 + 2 + 3 + 4 + 5 + 6 + 

G|-------------------------------------------------------------------------|
D|-------------------------------------------------------------------------|
A|-3-3-3-0-3-4-5-----------3-3-3-0-3-4-5-----------3-3-3-0-3-4-5-----------|
E|-----------------5-\---------------------5-\---------------------5-/-----|
   1 + 2 + 3 + 4 + 5 + 6 + 1 + 2 + 3 + 4 + 5 + 6 + 1 + 2 + 3 + 4 + 5 + 6 + 

Outro
G|-------------------------------------------------------------------------|
D|-------------------------------------------------------------------------|
A|-7-----------------------7-----------------------7-----------------------|
E|-----0-----------------------0-----------------------0-------------------|
   1 + 2 + 3 + 4 + 5 + 6 + 1 + 2 + 3 + 4 + 5 + 6 + 1 + 2 + 3 + 4 + 5 + 6 + 

G|-------------------------------------------------------------------------|
D|-5-----------------------------------------------------------------------|
A|-------------5-----------7---------------------------7-------------------|
E|-----------------------------0-------------------0-----------------------|
   1 + 2 + 3 + 4 + 5 + 6 + 1 + 2 + 3 + 4 + 5 + 6 + 1 + 2 + 3 + 4 + 5 + 6 + 

G|-------------------------------------------------|
D|-------------------------5-----------------------|
A|-7-----------------------------------5-----------|
E|-----0-------------------------------------------|
   1 + 2 + 3 + 4 + 5 + 6 + 1 + 2 + 3 + 4 + 5 + 6 + 

4:06
G|-------------------------------------------------------------------12-\--|
D|-------------------------------------------------------------------------|
A|-7-----------------------7-----------------------7-----------------------|
E|-----0-----------------------0-----------------------0-------------------|
   1 + 2 + 3 + 4 + 5 + 6 + 1 + 2 + 3 + 4 + 5 + 6 + 1 + 2 + 3 + 4 + 5 + 6 + 

G|-------------------------------------------------------------------------|
D|-5-----------------------------------------------------------------------|
A|-----------4-5-5-5-5-5-6-7---------------------------7-------------------|
E|---3-3-3-3-------------------0-------------------0-----------------------|
   1 + 2 + 3 + 4 + 5 + 6 + 1 + 2 + 3 + 4 + 5 + 6 + 1 + 2 + 3 + 4 + 5 + 6 + 

G|-------------------------------------------------------------------------|
D|-------------------------5---5---5---------------------------------------|
A|-7-----------------------------------5---5---5---7-7-7-7-\---------------|
E|-----0-------------------------------------------------------------------|
   1 + 2 + 3 + 4 + 5 + 6 + 1 + 2 + 3 + 4 + 5 + 6 + 1 + 2 + 3 + 4 + 5 + 6 + 
comments
We did not receive enough feedback on this tab! Please rate:
print report bad tab
1 2 3 4 5
I want to post or [tab]
guest
You may want to rate the tab now too:
select rating
Please do not post tabs as comments. Select "correction" instead!