Oops, an error
Loading. Please wait.

Armageddon Drum Tab

by Rush
81 views 1 this week
no commentswrite comment
1 2 3 4 5
please rate
Autoscroll
+/-
esc
set tempo
stop
Contributor
Hey! There's an official Ultimate Guitar app which is ideal
for learning songs when you're away from computer. Get the app
WARNING: You are trying to view
                                    content from Ultimate-Guitar.com
                                    in an unauthorized application,
                                    which is prohibited.

                                    Please use an official Ultimate
                                    Guitar Tabs application for iPhone,
                                    iPad or Android to access legitimate
                                    chords, guitar, bass, and drum tabs
                                    from Ultimate-Guitar.com database.

                                    Type "ultimate guitar tabs" in Apple
                                    App Store's or Android Market's
                                    search to find the application.
Armageddon
Rush
Hemispheres


      Q           e   e   e       e   e   e   e   e   e
H|----C-----------X---X---X---|---X---X---X---X---X---X---|
S|6:--------------X-----------|---------------X-----------|
T|8:--------------------------|---------------------------|
F|----X-----------------------|---X-----------------------|

     e   e   e   e   e   e       e   e   e   e   e   e   e   e   e
H|---X---X---X---X---X---X---|---X---X---X---X---X---X---X---X---X---|
S|---------------X-----------|9:-------------X-----------X-----------|
T|---------------------------|8:-------------------------------------|
F|---X-----------------------|---X-----------------------------------|

     e   e   e   e   e   e       e   e   e   e   e   e
H|---X---X---X---X---X---X---|---X---X---X---X---X---X---|
S|6:-------------X-----------|---------------X-----------|
T|8:-------------------------|---------------------------|
F|---X-----------------------|---X-----------------------|

     e   e   e   e   e   e
H|---X---X---X---------------|
S|---------------F-----------|
T|---------------------------|
F|---X---------------X---X---|

     q       e   e   e   e       e   e   e   e   e   e
H|---C-----------X---X---X---|---X---X---X---X---X---X---|
S|---X-----------X-----------|---------------X-----------|
T|---------------------------|---------------------------|
F|-----------X---------------|---X-----------------------|

     e   e   e   e   e   e       e   e   e   e   e   e   e   e   e
H|---X---X---X---X---X---X---|---X---X---O---X---X---O---X---X---X---|
S|---------------X-----------|9:-------------X-----------X-----------|
T|---------------------------|8:-------------------------------------|
F|---X-----------------------|---X-----------------------------------|

     e   e   e   e   e   e       e   e   e   e   e   e
H|---X---X---X---X---X---X---|---X---X---X---X---X---O---|
S|6:-------------X-----------|---------------X-----------|
T|8:-------------------------|---------------------------|
F|---X-----------------------|---X-----------------------|


     s s e   s s e   s s e         Q          Q
H|---------------------------||----C----------R-----------|
S|---------------------------||:--------------------------|
T|---3-3-4---4-4-5---5-5-6---||:--------------------------|
F|---------------------------||----X----------------------|

     q       q       q            Q           Q
H|---C-----------------------||---C-----------R-----------|
S|---X----------------------:||---------------------------|
T|-----------4-------5------:||---------------------------|
F|---------------------------||---X-----------------------|


     q       q       e   e       q       q       e   e
H|---C-----------------------|---------------------------|
S|---X-----------------------|---------------------------|
T|-----------4-------4---4---|--x5-------5-------5---5---|
F|---------------------------|---------------------------|

     e   e   e   Q
H|---------------------------|
S|---------------------------|
T|---6---6---6--x6-----------|
F|---------------------------|

       Q           e   e   e       e   e   e   e   e   e
H||----C-----------X---X---X---|---X---X---X---X---X---X---|
S||:---------------X-----------|---------------X-----------|
T||:---------------------------|---------------------------|
F||----X-----------------------|---X-----------------------|

     e   e   e   e   e   e       e   e   e   e   e   e   e   e   e
H|---X---X---X---X---X---X---|---X---X---O---X---X---O---X---X---X---|
S|---------------X-----------|9:-------------X-----------X-----------|
T|---------------------------|8:-------------------------------------|
F|---X-----------------------|---X-----------------------------------|

     e   e   e   e   e   e       e   e   e   e   e   e
H|---X---X---X---X---X---X---|---X---X---X---X---X---X---|
S|6:-------------X-----------|---------------X-----------|
T|8:-------------------------|---------------------------|
F|---X-----------------------|---X-----------------------|
 ___________________________  ____________________________
 | 1.                         | 2.
 |   e   s s e   e   e   e    |   E     s e   E     s e
H|---O-----------------------||---------------------------|
S|-------X-X-X---X---X---X--:||---------------------------|
T|--------------------------:||--x5-----5-5--x6-----6-6---|
F|---X-----------------------||---------------------------|

      Q           Q               q       q       q
H||---C-----------R-----------|---C-----------------------||
S||:--------------------------|---X----------------------:||
T||:--------------------------|-----------4-------5------:||
F||---X-----------------------|---------------------------||

     Q           Q               E     s e   e   e   e
H|---C-----------R-----------|---C-----------------------|
S|---------------------------|---X-----------------------|
T|---------------------------|---------4-4---4---4---4---|
F|---X-----------------------|---------------------------|

     E     s e   e   e   e       e   e   e   Q
H|---------------------------|---------------------------|
S|---------------------------|---------------------------|
T|---5-----5-5---5---5---5---|---6---6---6---6-----------|
F|---------------------------|---------------------------|

The universe divided...
      Q           e   e   e       e   e   e   e   e   e
H|----C-----------X---X---X---|---X---X---X---X---X---X---|
S|6:--------------X-----------|---------------X-----------|
T|8:--------------------------|---------------------------|
F|----X-----------------------|---X-----------------------|

Play 3 times
      e   e   e   e   e   e       e   e   e   e   e   e
H||---X---X---X---X---X---X---|---X---X---X---X---X---X---||
S||:--------------X-----------|---------------X----------:||
T||:--------------------------|--------------------------:||
F||---X-----------------------|---X-----------------------||

     e   e   e   e   e   e       e   e   e   e   q
H|---X---X---X---X---X---X---|---X---X---X---X---X-------|
S|---------------X-----------|---------------------------|
T|---------------------------|---------------7---7-------|
F|---X-----------------------|---X-----------------------|

      Q           Q               Q           Q
H||---C-----------R-----------|---C-----------R-----------||
S||:--------------------------|---X----------------------:||
T||:--------------------------|--------------------------:||
F||---X-----------------------|---------------------------||

     Q           Q               e   e   e   Q
H|---C-----------R-----------|---C-----------------------|
S|---------------------------|---X-----------------------|
T|---------------------------|---------------------------|
F|---X-----------------------|-------X-------X-----------|

     Q           e   e   e       e   e   e   Q
H|---C-----------------------|---------------------------|
S|---------------X---X---X---|---X---X---X---X-----------|
T|---------------X---X---X---|---X---X---X---X-----------|
F|---X-----------------------|---------------------------|

Play 7 times
      e   e   e   e   s s s s       Q+          Q
H||---O-------O---X---X-X-X-X--||---C-----------------------|
S||:--------------------------:||---------------------------|
T||:--------------------------:||---------------------------|
F||---X---P---X----------------||---X-----------------------|

      Q           e   e   e       e   e   e   e   e   e
H|----C-----------X---X---X---|---X---X---X---X---X---X---|
S|6:--------------X-----------|---------------X-----------|
T|8:--------------------------|---------------------------|
F|----X-----------------------|---X-----------------------|

Play 3 times
      e   e   e   e   e   e       e   e   e   e   e   e
H||---X---X---X---X---X---X---|---X---X---X---X---X---X---||
S||:--------------X-----------|---------------X----------:||
T||:--------------------------|--------------------------:||
F||---X-----------------------|---X-----------------------||

     e   e   e   e   e   e       e   e   e   e   e   e
H|---X---X---X---X---X---X---|---X---X---X---------------|
S|---------------X-----------|---------------------------|
T|---------------------------|---------------6---6---6---|
F|---X-----------------------|---X-----------------------|

      Q           Q               Q           Q
H||---C-----------R-----------|---C-----------R-----------||
S||:--------------------------|---X----------------------:||
T||:--------------------------|--------------------------:||
F||---X-----------------------|---------------------------||

     Q           Q               e   e   e   Q
H|---C-----------R-----------|---C-----------------------|
S|---------------------------|---X-----------------------|
T|---------------------------|---------------------------|
F|---X-----------------------|-------X-------X-----------|

     Q           e   e   e       e   e   e   Q
H|---C-----------------------|---------------------------|
S|---------------X---X---X---|---X---X---X---X-----------|
T|---------------X---X---X---|---X---X---X---X-----------|
F|---X-----------------------|---------------------------|

Play 14 times
      e   e   e   e   s s s s       e   s s e   e   e   e
H||---O-------O---X---X-X-X-X--||---O-----------------------|
S||:--------------------------:||---------------------------|
T||:--------------------------:||-------4-4-4---4---5---5---|
F||---X---P---X----------------||---X-----------------------|

     e   e   e   e   e   e       q       e   Q
H|---------------------------|---C-----------H-----------|
S|---------------------------|---------------------------|
T|---6---6---7---7---X---X---|---------------------------|
F|---------------------------|---X-------X---------------|

Play 5 times
     q       e   Q                 q       e   e   q
H||--H-----------H------------||---H-----------------------||
S||:-------------------------:||:--------------X----------:||
T||:-------------------------:||:-------------------------:||
F||--X-------X----------------||---X-------X-------X-------||

                                Play 5 times
     q       e   Q                q       e   Q
H|---C-----------H-----------||---H-----------H-----------||
S|---------------------------||:-------------------------:||
T|---------------------------||:-------------------------:||
F|---X-------X---------------||---X-------X---------------||

     e   e   e   e   e   e       e   e   e   e   e   e
H|---H-------H-------H-------|---------------------------|
S|-------X-------X-------X---|---X---X-------------------|
T|---------------------------|-----------6---6---7---7---|
F|---X-------X-------X-------|---------------------------|

                                Play 5 times
     q       e   Q                q       e   Q
H|---C-----------R-----------||---R-----------R-----------||
S|---------------------------||:-------------------------:||
T|---------------------------||:-------------------------:||
F|---X-------X---------------||---X-------X---------------||

     q       e   e   q           q       e   e   e   e
H|---R-----------R-----------|---R-----------R-----------|
S|---------------X-----------|---------------X---X---X---|
T|---------------------------|---------------------------|
F|---X-------X-------X-------|---X-------X---------------|

     q       e   e   q           e   e   e   e   e   e
H|---C-------O-------r-------|---O-------X---X---X---X---|-------|
S|---------------X---e-------|---------------X-----------|---%---|
T|-------------------s-------|---------------------------|-------|
F|---X-------X---P---t-------|---X---P---X---------------|-------|

Play 4 times
      e   e   e   e   e   e        e   e   e   e   e   e
H||---O-------O-------R---R---||---R---R---R---R---R---R---|
S||:--------------X----------:||---------------X---X---X---|
T||:-------------------------:||---------------------------|
F||---X---P---X---P-----------||---X-------X---------------|

Play 3 times
      e   e   e   e   e   e        e   e   e   e   e   e
H||---O-------O-------R---R---||---O-------O-------O-------|
S||:--------------X----------:||---------------------------| <--- Ghost notes(?)
T||:-------------------------:||---------------------------|
F||---X---P---X---P-----------||---X---P---X---P---X---P---|

      e   e   e   e   e   e        e   tttts s e   s s s s
H||---O-------O-------R---R---||---O-----------------------|
S||:--------------X----------:||-------XXXXX---F---X-X-X---|
T||:-------------------------:||---------------------------|
F||---X---P---X---P-----------||---X---------X-----------X-|

     e   s s s s Q                q       e   e   e   e
H|---------------C-----------||---C-------R---R---R---R---|
S|---X---X-X-X---X-----------||:--------------X-----------|
T|---5-----------------------||:--------------------------|
F|-------------X-------------||---X-------X---------------|

     e   e   e   e   e   e               e   e   e   e   e   e
H|---R---R---R---R---R---R---|-------|---R---R---R---R---R---R---||
S|---------------X-----------|---%---|---------------X----------:||
T|---------------------------|-------|--------------------------:||
F|---X-------X---------------|-------|---X-------X-------X-------||

     e   s s e   e   e   e       e   s s e   e   e   e
H|---C-----------------------|---C-----------------------|
S|---------------------------|---------------------------|
T|-------6-6-6---6---6---6---|-------7-7-7---7---7---7---|
F|---X-----------------------|---X-----------------------|

     e   s s e   e   e   e       e   e   e   Q
H|---C-----------------------|---C-----------------------|
S|---------------------------|---------------------------|
T|-------X-X-X---X---X---X---|-------X---X--xX-----------|
F|---X-----------------------|---X-----------------------|

      Q           Q               Q           Q
H||---C-----------C-----------|---C-----------C-----------||
S||:--------------------------|--------------------------:||
T||:--------------------------|--------------------------:||
F||---X-----------X-----------|---X-----------X-----------||

(Slower)
     Q           Q               Q+          Q
H|---C-----------C-----------|---C-------------------------|
S|---------------------------|-----------------------------|
T|---------------------------|-----------------------------|
F|---X-----------X-----------|---X-------------------------|

comments
We did not receive enough feedback on this tab! Please rate:
print report bad tab
1 2 3 4 5
I want to post or [tab]
guest
You may want to rate the tab now too:
select rating
Please do not post tabs as comments. Select "correction" instead!