Oops, an error
Loading. Please wait.

Armor And Sword Bass Tab

by Rush
ver1
ver1

Whole song

Interactive

More versions @911Tabs.com
3,426 views 7 this week
4 commentsread comments
1 2 3 4 5
excellent!
x 2
Autoscroll
+/-
esc
set tempo
stop
Contributor
WARNING: You are trying to view
                                    content from Ultimate-Guitar.com
                                    in an unauthorized application,
                                    which is prohibited.

                                    Please use an official Ultimate
                                    Guitar Tabs application for iPhone,
                                    iPad or Android to access legitimate
                                    chords, guitar, bass, and drum tabs
                                    from Ultimate-Guitar.com database.

                                    Type "ultimate guitar tabs" in Apple
                                    App Store's or Android Market's
                                    search to find the application.
Rush - Snakes And Arrows - Armor And Sword - Bass Tab
 
                      Q    E   E    E   E  E   E   
G||-------|-------|-------------------------------|
D||-------|-------|--10----9--10S--14--12-----10--|
A||-------|-------|-------------------------------|
E||-------|-------|-------------------------------|


  E   E  E   E    Q     E.  S     Q    E   E    E   E  E   E   
------------------------------|-------------------------------|
-----10--9--10S--14----12-----|--10----9--10S--14--12-----10--|
------------------------------|-------------------------------|
------------------------------|-------------------------------|


  E   E  E   E    Q     E.  S     Q    E   E    E   E  E   E   
------------------------------|--10----9--10S--14--12-----10--|
-----10--9--10S--14----12-----|-------------------------------|
------------------------------|-------------------------------|
------------------------------|-------------------------------|


  E   E  E   E    Q        E  E      Q    E   E    E   E  E   E   
-----10--9--10S--14----12g14-----|-------------------------------|
---------------------------------|--10----9--10S--14--12-----10--|
---------------------------------|-------------------------------|
---------------------------------|-------------------------------|


  E   E  E   E    Q     E.  S     E   E   E   E   E   E   E  E   
------------------------------|---9---9---9---9---9---9---9-----|
-----10--9--10S--14----12-----|--10--10--10--10--10--10--10--0--|
------------------------------|---------------------------------|
------------------------------|---------------------------------|


  E  E  E  E  E  E  E  E     E  E  E  E  E  E  E  E   
--------------------------|--------------------------|
--9--9--9--9--9--9--9--9--|-----4--5--4-----4--5--4--|
--7--7--7--7--7--7--7--7--|--5--L--L--L--5--L--L--L--|
--------------------------|--------------------------|


  E  E  E  E  E  E  E  E      E   E   E   E   E   E   E  E   
--------------------------|---9---9---9---9---9---9---9-----|
-----4--5--4-----4--5--4--|--10--10--10--10--10--10--10--0--|
--5--L--L--L--5--L--L--L--|---------------------------------|
--------------------------|---------------------------------|


  E  E  E  E  E  E  E  E     E  E  E  E  E  E  E  E     E  E  E  E  E  E  Q     
--------------------------|--------------------------|-------------------------|
--9--9--9--9--9--9--9--9--|-----4--5--4-----4--5--4--|-----2--4--2-----2--5----|
--7--7--7--7--7--7--7--7--|--5--L--L--L--5--L--L--L--|--3--L--L--L--3--L--L----|
--------------------------|--------------------------|-------------------------|


                                      Q    E  E  E  E   
-----|-----|-----|-----|-----|-----|-------------------|
-----|-----|-----|-----|-----|-----|-------------------|
-----|-----|-----|-----|-----|-----|--7----9--7--9--7--|
-----|-----|-----|-----|-----|-----|-------------------|


   E   E   E   E   E   E     Q    E  E  E  E      E   E   E   E   E   E   
----------12----------12--|-------------------|----------12----------12--|
------10------10----------|-------------------|------10------10----------|
--10--------------10------|--7----9--7--9--7--|--10--------------10------|
--------------------------|-------------------|--------------------------|


  Q    E  E  E  E      E   E  E   E  E   E     Q    E  E  E  E   
-------------------|----------9--11--9------|-------------------|
-------------------|------10------------12--|-------------------|
--7----9--7--9--7--|--10--------------------|--7----9--7--9--7--|
-------------------|------------------------|-------------------|


   E   E   E   E   E   E     Q    E  E  E  E      E   E   E   E   E  E   
----------12----------12--|-------------------|----------12-------------|
------10------10----------|-------------------|------10------10---------|
--10--------------10------|--7----9--7--9--7--|--10--------------10--7--|
--------------------------|-------------------|-------------------------|


  Q    E  E  E  E  E  E     Q    E  E  E  E  Q       Q    E  E  E  E  E  E   
-------------------------|------------------------|-------------------------|
-------------------------|------------------------|-------------------------|
-------------------------|------------------------|-------------------------|
--0----0--3-----3--3--0--|--1----1--5-----5--5----|--0----0--3-----3--3--0--|


  Q    E  E  E  E  Q       Q    E  E  E  E  E  E     Q    E  E  E  E  Q     
------------------------|-------------------------|------------------------|
------------------------|-------------------------|------------------------|
------------------------|-------------------------|------------------------|
--1----1--5-----5--5----|--0----0--3-----3--3--0--|--1----1--5-----5--5----|


  Q    E  E  E  E  E  E     Q    E  E  E  E  Q       Q    E  E  E  E  E  E   
-------------------------|------------------------|-------------------------|
-------------------------|------------------------|-------------------------|
-------------------------|------------------------|-------------------------|
--0----0--3-----3--3--0--|--1----1--5-----5--5----|--0----0--3-----3--3--0--|


  Q    E  E  E  E  Q       Q    E  E  E  E  E  E     Q    E  E  E  E  Q     
------------------------|-------------------------|------------------------|
------------------------|-------------------------|------------------------|
------------------------|-------------------------|------------------------|
--1----1--5-----5--5----|--0----0--3-----3--3--0--|--1----1--5-----5--5----|


   E   E   E   E   E   E   E  E     E  E  E  E  E  E  E  E   
---9---9---9---9---9---9---9-----|--------------------------|
--10--10--10--10--10--10--10--0--|--9--9--9--9--9--9--9--9--|
---------------------------------|--7--7--7--7--7--7--7--7--|
---------------------------------|--------------------------|


  E  E  E  E  E  E  E  E     E  E  E  E  E  E  E  E   
--------------------------|--------------------------|
-----4--5--4-----4--5--4--|-----4--5--4-----4--5--4--|
--5--L--L--L--5--L--L--L--|--5--L--L--L--5--L--L--L--|
--------------------------|--------------------------|


   E   E   E   E   E   E   E  E     E  E  E  E  E  E  E  E   
---9---9---9---9---9---9---9-----|--------------------------|
--10--10--10--10--10--10--10--0--|--9--9--9--9--9--9--9--9--|
---------------------------------|--7--7--7--7--7--7--7--7--|
---------------------------------|--------------------------|


  E  E  E  E  E  E  E  E     E  E  E  E  E  E  E  E   
--------------------------|--------------------------|
-----4--5--4-----4--5--4--|-----2--4--2-----2--4--2--|
--5--L--L--L--5--L--L--L--|--3--L--L--L--3--L--L--L--|
--------------------------|--------------------------|


   E   E   E   E   E   E   E  E     E  E  E  E  E  E  E  E   
---9---9---9---9---9---9---9-----|--------------------------|
--10--10--10--10--10--10--10--0--|--9--9--9--9--9--9--9--9--|
---------------------------------|--7--7--7--7--7--7--7--7--|
---------------------------------|--------------------------|


  E  E  E  E  E  E  E  E     E  E  E  E  E  E  E  E     H.            
--------------------------|--------------------------|---------------|
-----4--5--4-----4--5--4--|-----4--5--4-----4--5--4--|---------------|
--5--L--L--L--5--L--L--L--|--5--L--L--L--5--L--L--L--|---------------|
--------------------------|--------------------------|--0------------|


  H.                                                                            
---------------|---------------|---------------|---------------|---------------|
---------------|---------------|---------------|---------------|---------------|
---------------|---------------|---------------|---------------|---------------|
--L------------|---------------|---------------|---------------|---------------|


  Q    E  E  E  E      E   E   E   E   E   E     Q    E  E  E  E   
-------------------|----------12----------12--|-------------------|
-------------------|------10------10----------|-------------------|
--7----9--7--9--7--|--10--------------10------|--7----9--7--9--7--|
-------------------|--------------------------|-------------------|


   E   E  E   E  E   E     Q    E  E  E  E      E   E   E   E   E   E   
----------9--11--9------|-------------------|----------12----------12--|
------10------------12--|-------------------|------10------10----------|
--10--------------------|--7----9--7--9--7--|--10--------------10------|
------------------------|-------------------|--------------------------|


  Q    E  E  E  E      E   E   E   E   E  E     Q    E  E  E  E  E  E   
-------------------|----------12-------------|-------------------------|
-------------------|------10------10---------|-------------------------|
--7----9--7--9--7--|--10--------------10--7--|-------------------------|
-------------------|-------------------------|--0----0--3-----3--3--0--|


  Q    E  E  E  E  Q       Q    E  E  E  E  E  E     Q    E  E  E  E  Q     
------------------------|-------------------------|------------------------|
------------------------|-------------------------|------------------------|
------------------------|-------------------------|------------------------|
--1----1--5-----5--5----|--0----0--3-----3--3--0--|--1----1--5-----5--5----|


  Q    E  E  E  E  E  E     Q    E  E  E  E  Q       Q    E  E  E  E  E  E   
-------------------------|------------------------|-------------------------|
-------------------------|------------------------|-------------------------|
-------------------------|------------------------|-------------------------|
--0----0--3-----3--3--0--|--1----1--5-----5--5----|--0----0--3-----3--3--0--|


  Q    E  E  E  E  Q       Q    E  E  E  E  E  E     Q    E  E  E  E  Q     
------------------------|-------------------------|------------------------|
------------------------|-------------------------|------------------------|
------------------------|-------------------------|------------------------|
--1----1--5-----5--5----|--0----0--3-----3--3--0--|--1----1--5-----5--5----|


  Q    E  E  E  E  E  E     Q    E  E  E  E  Q       Q    E  E  E  E  E  E   
-------------------------|------------------------|-------------------------|
-------------------------|------------------------|-------------------------|
-------------------------|------------------------|-------------------------|
--0----0--3-----3--3--0--|--1----1--5-----5--5----|--0----0--3-----3--3--0--|


  Q    E  E  E  E  Q        E   E   E   E   E   E   E  E   
------------------------|---9---9---9---9---9---9---9-----|
------------------------|--10--10--10--10--10--10--10--0--|
------------------------|---------------------------------|
--1----1--5-----5--5----|---------------------------------|


  E  E  E  E  E  E  E  E     E  E  E  E  E  E  E  E   
--------------------------|--------------------------|
--9--9--9--9--9--9--9--9--|-----4--5--4-----4--5--4--|
--7--7--7--7--7--7--7--7--|--5--L--L--L--5--L--L--L--|
--------------------------|--------------------------|


  E  E  E  E  E  E  E  E      E   E   E   E   E   E   E  E   
--------------------------|---9---9---9---9---9---9---9-----|
-----4--5--4-----4--5--4--|--10--10--10--10--10--10--10--0--|
--5--L--L--L--5--L--L--L--|---------------------------------|
--------------------------|---------------------------------|


  E  E  E  E  E  E  E  E     E  E  E  E  E  E  E  E   
--------------------------|--------------------------|
--9--9--9--9--9--9--9--9--|-----4--5--4-----4--5--4--|
--7--7--7--7--7--7--7--7--|--5--L--L--L--5--L--L--L--|
--------------------------|--------------------------|


  E  E  E  E  E  E  E  E      E   E   E   E   E   E   E  E   
--------------------------|---9---9---9---9---9---9---9-----|
-----2--4--2-----2--4--2--|--10--10--10--10--10--10--10--0--|
--3--L--L--L--3--L--L--L--|---------------------------------|
--------------------------|---------------------------------|


  E  E  E  E  E  E  E  E     E  E  E  E  E  E  E  E   
--------------------------|--------------------------|
--9--9--9--9--9--9--9--9--|-----4--5--4-----4--5--4--|
--7--7--7--7--7--7--7--7--|--5--L--L--L--5--L--L--L--|
--------------------------|--------------------------|


  E  E  E  E  E  E  E  E      Q    E   E    E   E  E   E   
--------------------------|-------------------------------|
-----4--5--4-----4--5--4--|--10----9--10S--14--12-----10--|
--5--L--L--L--5--L--L--L--|-------------------------------|
--------------------------|-------------------------------|


  E   E  E   E    Q     E.  S     Q    E   E    E   E  E   E   
------------------------------|-------------------------------|
-----10--9--10S--14----12-----|--10----9--10S--14--12-----10--|
------------------------------|-------------------------------|
------------------------------|-------------------------------|


  E   E  E   E    Q        Q        Q    E   E    E   E  E   E   
--------------------------------|--10----9--10S--14--12-----10--|
-----10--9--10S--14----12g14----|-------------------------------|
--------------------------------|-------------------------------|
--------------------------------|-------------------------------|


  E   E  E   E    Q        Q        Q    E   E    E   E  E   E   
-----10--9--10S--14----12g14----|-------------------------------|
--------------------------------|--10----9--10S--14--12-----10--|
--------------------------------|-------------------------------|
--------------------------------|-------------------------------|


  E   E  E   E    Q     Q                                                  
-----------------------------|----|-------------------|-------------------|
-----10--9--10S--14----12----|----|-------------------|-------------------|
-----------------------------|----|-------------------|-------------------|
-----------------------------|----|-------------------|-------------------|


   pluck the string as you slide down the neck                                  
   S                                           S  S  S  S  S  S  S  S  S S S S S
--------------------------------------------------------------------------------
--------------------------------------------------------------------------------
--19------------------------------------------18-17-16-15-14-13-12-11-10-9-8-7-6
--------------------------------------------------------------------------------


  E  E  E  E  E  E  E  E     E  E  E  E  E  E  E  E   
--------------------------|--------------------------|
--------------------------|--------------------------|
--3--3--3--3--3--3--3--3--|--6--6--6--6--6--6--6--6--|
--------------------------|--------------------------|


  E  E  E  E  E  E  E  E     E  E  E  E  E  E  E  E   
--------------------------|--------------------------|
--------------------------|--------------------------|
--2--2--2--2--2--2--2--2--|--------------------------|
--------------------------|--4--4--4--4--4--4--4--4--|


  E  E  E  E  E  E  E  E     E  E  E  E  E  E  E  E   
--------------------------|--------------------------|
--------------------------|--------------------------|
--3--3--3--3--3--3--3--3--|--6--6--6--6--6--6--6--6--|
--------------------------|--------------------------|


  E  E  E  E  E  E  E  E     E  E  E  E  E  E  E  E   
--------------------------|--------------------------|
--------------------------|--------------------------|
--------------------------|--------------------------|
--0--0--0--0--0--0--0--0--|--4--4--4--4--4--4--4--4--|


  E  E  E  E  E  E  E  E     E  E  E  E  E  E  E  E   
--------------------------|--------------------------|
--------------------------|--------------------------|
--3--3--3--3--3--3--3--3--|--6--6--6--6--6--6--6--6--|
--------------------------|--------------------------|


  E  E  E  E  E  E  E  E     E  E  E  E  E  E  E  E   
--------------------------|--------------------------|
--------------------------|--------------------------|
--2--2--2--2--2--2--2--2--|--------------------------|
--------------------------|--4--4--4--4--4--4--4--4--|


  E  E  E  E  E  E  E  E     E  E  E  E  E  E  E  E   
--------------------------|--------------------------|
--------------------------|--------------------------|
--3--3--3--3--3--3--3--3--|--6--6--6--6--6--6--6--6--|
--------------------------|--------------------------|


  E  E  E  E  E  E  E  E     E  E  E  E  E  E  E  E   
--------------------------|--------------------------|
--------------------------|--------------------------|
--------------------------|--------------------------|
--0--0--0--0--0--0--0--0--|--4--4--4--4--4--4--4--4--|


  E  E  E  E  E  E  E  E     E  E  E  E  E  E  E  E   
--------------------------|--------------------------|
--------------------------|--------------------------|
--3--3--3--3--3--3--3--3--|--6--6--6--6--8--6--8--6--|
--------------------------|--------------------------|


  E  E  E  E  E  E  E  E     E  E  E  E  E  E  E  E   
--------------------------|--------------------------|
--------------------------|--------------------------|
--2--2--2--2--2--2--2--2--|--------------------------|
--------------------------|--4--4--4--2--4--2--4--2--|


  E  E  E  E  E  E  E  E     E  E  E  E  E  E  E  E   
--------------------------|--------------------------|
--------------------------|--------------------------|
--3--3--3--3--3--3--3--3--|--6--6--6--6--8--6--8--6--|
--------------------------|--------------------------|


  E  E  E  E  E  E  E  E     E  E  E  E  E  E  E  E   
--------------------------|--------------------------|
--------------------------|--------------------------|
--------------------------|--------------------------|
--0--0--0--0--0--0--0--0--|--4--4--4--2--4--2--4--2--|


  E  E  E  E  E  E  E  E     E  E  E  E  E  E  E  E   
--------------------------|--------------------------|
--------------------------|--------------------------|
--3--3--3--3--3--3--3--3--|--6--6--6--6--8--6--8--6--|
--------------------------|--------------------------|


  E  E  E  E  E  E  E  E     E  E  E  E  E  E  Q       Q    E  E  E  E  E  E   
--------------------------|-------------------------|-------------------------|
--------------------------|-------------------------|-------------------------|
--2--2--2--2--2--2--2--2--|-------------------------|-------------------------|
--------------------------|--4--4--4--2--4-----4----|--0----0--3-----3--3--0--|


  Q    E  E  E  E  Q       Q    E  E  E  E  E  E     Q    E  E  E  E  Q     
------------------------|-------------------------|------------------------|
------------------------|-------------------------|------------------------|
------------------------|-------------------------|------------------------|
--1----1--5-----5--5----|--0----0--3-----3--3--0--|--1----1--5-----5--5----|


  Q    E  E  E  E  E  E     Q    E  E  E  E  Q       Q    E  E  E  E  E  E   
-------------------------|------------------------|-------------------------|
-------------------------|------------------------|-------------------------|
-------------------------|------------------------|-------------------------|
--0----0--3-----3--3--0--|--1----1--5-----5--5----|--0----0--3-----3--3--0--|


  Q    E  E  E  E  Q       Q    E  E  E  E  E  E     Q    E  E  E  E  Q     
------------------------|-------------------------|------------------------|
------------------------|-------------------------|------------------------|
------------------------|-------------------------|------------------------|
--1----1--5-----5--5----|--0----0--3-----3--3--0--|--1----1--5-----5--5----|


  Q    E  E  E  E  E  E     Q    E  E  E  E  Q     
-------------------------|------------------------|
-------------------------|------------------------|
-------------------------|------------------------|
--0----0--3-----3--3--0--|--1----1--5-----5--5----|


   E   E   E   E   E   E   E  E     E  E  E  E  E  E  E  E   
---9---9---9---9---9---9---9-----|--------------------------|
--10--10--10--10--10--10--10--0--|--9--9--9--9--9--9--9--9--|
---------------------------------|--7--7--7--7--7--7--7--7--|
---------------------------------|--------------------------|


  E  E  E  E  E  E  E  E     E  E  E  E  E  E  E  E   
--------------------------|--------------------------|
-----4--5--4-----4--5--4--|-----4--5--4-----4--5--4--|
--5--L--L--L--5--L--L--L--|--5--L--L--L--5--L--L--L--|
--------------------------|--------------------------|


   E   E   E   E   E   E   E  E     E  E  E  E  E  E  E  E   
---9---9---9---9---9---9---9-----|--------------------------|
--10--10--10--10--10--10--10--0--|--9--9--9--9--9--9--9--9--|
---------------------------------|--7--7--7--7--7--7--7--7--|
---------------------------------|--------------------------|


  E  E  E  E  E  E  E  E     E  E  E  E  E  E  E  E   
--------------------------|--------------------------|
-----4--5--4-----4--5--4--|-----2--4--2-----2--4--2--|
--5--L--L--L--5--L--L--L--|--3--L--L--L--3--L--L--L--|
--------------------------|--------------------------|


   E   E   E   E   E   E   E  E     E  E  E  E  E  E  E  E   
---9---9---9---9---9---9---9-----|--------------------------|
--10--10--10--10--10--10--10--0--|--9--9--9--9--9--9--9--9--|
---------------------------------|--7--7--7--7--7--7--7--7--|
---------------------------------|--------------------------|


  E  E  E  E  E  E  E  E     E  E  E  E  E  E  E  E   
--------------------------|--------------------------|
-----4--5--4-----4--5--4--|-----4--5--4-----4--5--4--|
--5--L--L--L--5--L--L--L--|--5--L--L--L--5--L--L--L--|
--------------------------|--------------------------|


   E   E   E   E   E   E   E  E     E  E  E  E  E  E  E  E   
---9---9---9---9---9---9---9-----|--------------------------|
--10--10--10--10--10--10--10--0--|--9--9--9--9--9--9--9--9--|
---------------------------------|--7--7--7--7--7--7--7--7--|
---------------------------------|--------------------------|


  E  E  E  E  E  E  E  E     E  E  E  E  E  E  E  E   
--------------------------|--------------------------|
-----4--5--4-----4--5--4--|-----2--4--2-----2--4--2--|
--5--L--L--L--5--L--L--L--|--3--L--L--L--3--L--L--L--|
--------------------------|--------------------------|


   E   E   E   E   E   E   E  E     E  E  E  E  E  E  E  E   
---9---9---9---9---9---9---9-----|--------------------------|
--10--10--10--10--10--10--10--0--|--9--9--9--9--9--9--9--9--|
---------------------------------|--7--7--7--7--7--7--7--7--|
---------------------------------|--------------------------|


  E  E  E  E  E  E  E  E     E  E  E  E  E  E  E  E   
--------------------------|--------------------------|
-----4--5--4-----4--5--4--|-----4--5--4-----4--5--4--|
--5--L--L--L--5--L--L--L--|--5--L--L--L--5--L--L--L--|
--------------------------|--------------------------|


  E   E    E    E    E    E       E    E     E     E     E     E    
----------(9)--------L---(9)--|------------(12)----------L---(12)--|
-----(9)---L---(9)--------L---|------(10)----L---(10)----------L---|
--7-------------L---(7)---L---|--10----------------L---(10)----L---|
------------------------------|------------------------------------|


   H.                              
--(9)------------|---------------||
--(9)------------|---------------||
---7-------------|---------------||
-----------------|---------------||




Duration Legend
---------------
W - whole
H - half
Q - quarter
E - 8th
S - 16th
T - 32nd
X - 64th
. - note dotted
|-n-|  - n-tuplets


Tablature Legend
----------------
L - tied note
x - dead note
g - grace note
(n) - ghost note
> - accentuded note
NH - natural harmonic
AH - artificial harmonic
TH - tapped harmonic
SH - semi harmonic
PH - pitch harmonic
h - hammer on
p - pull off
b - bend
br - bendRelease
pb - preBend
pbr - preBendRelease
brb - bendReleaseBend
\n/ - tremolo bar dip
\n - tremolo bar dive
-/n - tremolo bar Release up
/n\ - tremolo bar inverted dip
/n - tremolo bar return
-\n - tremolo bar Release down
S - shift slide
s - legato slide
/ -  slide into from below or out of upwards
\ -  slide into from above or out of downwards
~ - vibrato
W - wide vibrato
tr - trill
TP - tremolo picking
T - tapping
S - slap
P - pop
< - fade in
^ - brush up
v - brush down
comments
We did not receive enough feedback on this tab! Please rate:
print report bad tab
1 2 3 4 5
4 comments total. Showing first comments.
+2 reply
barbarosa121 wrote on August 31 2007, 01:54 pm

you are awesome...ive been looking for a armor and sword bass tab ever since the album came out..amazing tab

0 reply
13Kelly13 wrote on March 23 2011, 08:36 pm

I second that!

0 reply
mrkeithrichard wrote on May 25 2014, 10:25 am

Honestly....whatever dickless douchebag that wrote this tab should just STOP doing it.....burn your bass. and you losers that think this is even CLOSE...heaven help the music of the future

I want to post or [tab]
guest
You may want to rate the tab now too:
select rating
Please do not post tabs as comments. Select "correction" instead!