Oops, an error
Loading. Please wait.

Caress Of Steel Tab

by Rush
1,761 views 6 this week
no commentswrite comment
1 2 3 4 5
excellent!
x 1
add to favorites launch autoscroll
font size
0
reset
Autoscroll
+/-
esc
set tempo
stop
Contributor
WARNING: You are trying to view
                                    content from Ultimate-Guitar.com
                                    in an unauthorized application,
                                    which is prohibited.

                                    Please use an official Ultimate
                                    Guitar Tabs application for iPhone,
                                    iPad or Android to access legitimate
                                    chords, guitar, bass, and drum tabs
                                    from Ultimate-Guitar.com database.

                                    Type "ultimate guitar tabs" in Apple
                                    App Store's or Android Market's
                                    search to find the application.
        Rush - Caress of Steel Album (1975)

1 - Bastille Day
2 - I Think I'm Going Bald
3 - Lakeside Park
4 - The Necromancer (All Parts I-III)
5 - The Fountain of Lamneth (All Parts I-VI)


Bastille Day:


||-----------------|----------------|----------------|-----------------||
||o----------------|----------------|----------------|----------------o||
||-----------------|----------------|----------------|-----------------||
||-----------------|----------------|----------------|-----------------||
||o----------------|----------------|----------------|----------------o||
||--3h5-5-5--5-5-5-|-3h5-5-5--5-5-5-|-3h5-5-5--5-5-5-|-3-3-3-2--2-0----||


    N.C.
    E E E Q  E E E   E E E Q  E E E   E E E Q  E E E   E E E Q  E Q
||-----------------|----------------|----------------|-----------------||
||o----------------|----------------|----------------|----------------o||
||-----------------|----------------|----------------|-----------------||
||-----------------|----------------|----------------|-----------------||
||o----------------|----------------|----------------|----------------o||
||--5h7-7-7--7-7-7-|-5h7-7-7--7-7-7-|-5h7-7-7--7-7-7-|-5-5-5-4--4-2----||


Verses I & II
  Q=200
  $
  E5   G5   C5/G     D5/A A5 D5/A     E5    G5   C5/G     D5/A A5
  Q  E Q.   Q    +E  Q  E Q  E +E     E E E Q.   Q    +E  Q  E Q     Q
|--------------|--------------------|---------------|--------------------|
|--------------|--------------------|---------------|--------------------|
|-----------5--|-(5)-7--7----7-(7)\-|------------5--|-(5)-7--7-----------|
|-2--x-5----5--|-(5)-7--7-7--7-(7)\-|-2-2-2-5----5--|-(5)-7--7-7-----7\--|
|-2--x-5----3--|-(3)-5--5-7--5-(5)\-|-2-2-2-5----3--|-(3)-5--5-7-----7\--|
|-0--0-3----3--|-(3)-5--5-5--5-(5)\-|-0-0-0-3----3--|-(3)-5--5-5---------|
|
| Gtr II
|                                                              |-3-|
| W               W                   W                H       E E E Q
|--------------|--------------------|---------------|--------------------|
|--------------|--------------------|---------------|----------x-x-x-x---|
|--------------|--------------------|---------------|----------x-x-x-x---|
|--------------|--------------------|---------------|----------x-x-x-x---|
|--------------|--------------------|---------------|----------x-x-x-x---|
|--------------|--------------------|---------------|--------------------|


  E5   G5   C5/G     D5/A A5 D5/A
  Q  E Q.   Q    +E  Q  E Q  E +E

|--------------|--------------------|
|--------------|--------------------|
|-----------5--|-(5)-7--7----7-(7)\-|
|-2--x-5----5--|-(5)-7--7-7--7-(7)\-|
|-2--x-5----3--|-(3)-5--5-7--5-(5)\-|
|-0--0-3----3--|-(3)-5--5-5--5-(5)\-|
|
| Gtr II
| W               W
|--------------|--------------------|
|--------------|--------------------|
|--------------|--------------------|
|--------------|--------------------|
|--------------|--------------------|
|--------------|--------------------|


                                    To Coda
  E5    G5   C5/G       D5/A    A5
  E E E Q.   Q    +E    Q     E Q     Q
|---------------|---------------------------|
|---------------|---------------------------|
|------------5--|-(5)---7-----7-------------|
|-2-2-2-5----5--|-(5)---7-----7-7-----7\----|
|-2-2-2-5----3--|-(3)---5-----5-7-----7\----|
|-0-0-0-3----3--|-(3)---5-----5-5-----------|
|
|                  |--3---|     |-3-|
| W                E  E   E E E E E E E  E

|---------------|---------------------------|
|---------------|--x--x---x-x---x-x-x-x-----|
|---------------|--x--x---x-x---x-x-x-x-----|
|---------------|--x--x---x-x---x-x-x-x-----|
|---------------|--x--x---x-x---x-x-x-x-----|
|---------------|---------------------------|


  E5   G5   C5/G     D5/A A5 D5/A     E5    G5   C5/G     D5/A A5
  Q  E Q.   Q    +E  Q  E Q  E +E     E E E Q.   Q    +E  Q  E Q  Q
|--------------|--------------------|---------------|-----------------|
|--------------|--------------------|---------------|-----------------|
|-----------5--|-(5)-7--7----7-(7)\-|------------5--|-(5)-7--7--------|
|-2--x-5----5--|-(5)-7--7-7--7-(7)\-|-2-2-2-5----5--|-(5)-7--7-7--7\--|
|-2--x-5----3--|-(3)-5--5-7--5-(5)\-|-2-2-2-5----3--|-(3)-5--5-7--7\--|
|-0--0-3----3--|-(3)-5--5-5--5-(5)--|-0-0-0-3----3--|-(3)-5--5-5------|


  E5   G5   C5/G     D5/A A5 D5/A     E5    G5   C5/G     D5/A A5
  Q  E Q.   Q    +E  Q  E Q  E +E     E E E Q.   Q    +E  Q  E Q  Q
|--------------|--------------------|---------------|-----------------|
|--------------|--------------------|---------------|-----------------|
|-----------5--|-(5)-7--7----7-(7)\-|------------5--|-(5)-7--7--------|
|-2--x-5----5--|-(5)-7--7-7--7-(7)\-|-2-2-2-5----5--|-(5)-7--7-7--7\--|
|-2--x-5----3--|-(3)-5--5-7--5-(5)\-|-2-2-2-5----3--|-(3)-5--5-7--7\--|
|-0--0-3----3--|-(3)-5--5-5--5-(5)--|-0-0-0-3----3--|-(3)-5--5-5------|


  &
  E5   G5   C5/G     D5/A A5 D5/A     E5    G5   C5/G     D5/A A5
  Q  E Q.   Q    +E  Q  E Q  E +E     E E E Q.   Q    +E  Q  E Q  Q
|--------------|--------------------|---------------|-----------------|
|--------------|--------------------|---------------|-----------------|
|-----------5--|-(5)-7--7----7-(7)\-|------------5--|-(5)-7--7--------|
|-2--x-5----5--|-(5)-7--7-7--7-(7)\-|-2-2-2-5----5--|-(5)-7--7-7--7\--|
|-2--x-5----3--|-(3)-5--5-7--5-(5)\-|-2-2-2-5----3--|-(3)-5--5-7--7\--|
|-0--0-3----3--|-(3)-5--5-5--5-(5)--|-0-0-0-3----3--|-(3)-5--5-5------|



  E5   G5   C5/G     D5/A A5 D5/A     E5    G5   C5/G     D5/A A5
  Q  E Q.   Q    +E  Q  E Q  E +E     E E E Q.   Q    +E  Q  E Q  Q
|--------------|--------------------|---------------|----------------|
|--------------|--------------------|---------------|----------------|
|-----------5--|-(5)-7--7----7-(7)\-|------------5--|-(5)-7--7----0--|
|-2--x-5----5--|-(5)-7--7-7--7-(7)\-|-2-2-2-5----5--|-(5)-7--7-7--0--|
|-2--x-5----3--|-(3)-5--5-7--5-(5)\-|-2-2-2-5----3--|-(3)-5--5-7-----|
|-0--0-3----3--|-(3)-5--5-5--5-(5)--|-0-0-0-3----3--|-(3)-5--5-5-----|


Chorus
  Q=190
  G              Gsus2/FG      C              G/B    N.C.
  H.       Q      H     H      H.       Q      H     H
|--------------|-------------|--------------|-------------|
|-3-------(3)--|-(3)---------|-1-------(1)--|-------------|
|-0-------(0)--|-(0)---------|-0-------(0)--|-(0)---------|
|-0-------(0)--|-(0)---------|-2--------2---|--0-----0----|
|-2--------2---|--0-----2----|-3--------3---|--2-----0----|
|-3--------3---|--2-----3----|--------------|-------------|


  G5               A5           D
  H.      E +E     H.      Q    Q  E Q  E Q    E Q  E E E E E
|----------------|------------|--------------|----------------|
|----------------|------------|-7----7----7--|---7----7---7---|
|----------------|------------|-7----7----7--|---7--7-7-7-7-7-|
|-5-------5-(5)/-|-7-------7--|-7--7-7--7-7--|-7-7--7-7-7-7-7-|
|-5-------5-(5)/-|-7-------7--|-5--5-5--5-5--|-5-5--5---5---5-|
|-3-------3-(3)/-|-5-------5--|--------------|----------------|


  G              Gsus2/FG      C              G/B    N.C.
  H.       Q      H     H      H.       Q      H     H
|--------------|-------------|--------------|-------------|
|-3-------(3)--|-(3)---------|-1-------(1)--|-------------|
|-0-------(0)--|-(0)---------|-0-------(0)--|-(0)---------|
|-0-------(0)--|-(0)---------|-2--------2---|--0-----0----|
|-2--------2---|--0-----2----|-3--------3---|--2-----0----|
|-3--------3---|--2-----3----|--------------|-------------|


                                            D.S. al Coda
  G5               A5           D
  H.      E +E     H.      Q    Q  E Q  E E E   E. S H.
|----------------|------------|---------------|-------------|
|----------------|------------|-7--7-7--7-7-7-|-7-----------|
|----------------|------------|-7--7-7--7-7-7-|-7-----------|
|-5-------5-(5)/-|-7-------7--|-7--7-7--7-7-7-|-7-----------|
|-5-------5-(5)/-|-7-------7--|-5--5-5--5-5-5-|-5-----------|
|-3-------3-(3)/-|-5-------5--|---------------|-------------|


Bridge
  G    Gsus2/F#  C    G/B       G5   A5   D
  Q.   Q  Q.     Q.   Q  Q.     E Q  E Q  Q    +E  E E E E Q.
|--------------|--------------|--------------|------------------|
|--------------|--------------|-----------7--|-(7)-7-7-7-7------|
|-0----0-------|-0----0-------|-----------7--|-(7)-7-7-7-7------|
|-0----0-------|-2----0-------|-5----7----7--|-(7)-7-7-7-7------|
|-2----0-------|-3----2-------|-5----7----5--|-(5)-5-5-5-5------|
|-3----2-------|--------------|-3----5-------|------------------|


  G    Gsus2/F#  C    G/B       G5   A5      E5
  Q.   Q  Q.     Q.   Q  Q.     E Q  Q  +E   Q    +W
|--------------|--------------|-----------------|--------|
|--------------|--------------|-----------------|--------|
|-0----0-------|-0----0-------|-----------------|--------|
|-0----0-------|-2----0-------|-5----7--(7)\-2--|-(2)----|
|-2----0-------|-3----2-------|-5----7--(7)\-2--|-(2)----|
|-3----2-------|--------------|-3----5--(5)\-0--|-(0)----|


  Em                B
  Gtr III
   E     Q    E Q   Q        +E   E E E E Q.
|--------------------------|------7-7-7-7-7----|
|--7h====8----8-8---7------|-(7)--7-7-7-7-7----|
|--7h====9----9-9---8------|-(8)--8-8-8-8-8----|
|--7h====9----9-9---9------|-(9)--9-9-9-9-9----|
|--7----(7)---7-7---9------|-(9)---------------|
|-------------------7------|-(7)---------------|
|
| Gtr II

|  Q        E E E E Q        +Q     Q   H
|--7--------7-7-7-7--------|--------7---7------|
|--8--------8-8-8-8-7------|-(7)----7---7------|
|--9--------9-9-9-9-8------|-(8)----8---8------|
|--9--------9-9-9-9-9------|-(9)----9---9------|
|--7--------7-7-7-7-9------|-(9)----9---9------|
|-------------------7------|-(7)---------------|
|
| Gtr IV
|  H.               Q        +W
|--------------------------|-------------------|
|--8----------------7------|-(7)---------------|
|-10b12-------------9b11===|=(9)r--------------|
|--------------------------|-------------------|
|--------------------------|-------------------|
|--------------------------|-------------------|


  Em                CVIII
   E     Q    E Q    Q          +E    E  Q     E  Q.
|----------------------------|-----------------8--8----|
|--7h====8----8-8----8-------|--(8)------------8--8----|
|--7h====9----9-9----9-------|--(9)------------9--9----|
|--7h====9----9-9---10-------|-(10)--10-10-------------|
|--7----(7)---7-7---10-------|-(10)--10-10-------------|
|--------------------8-------|--(8)---8--8-------------|
|
|  E     E  E E E E  E     E     E    E  E  E  E  Q.
|--7-----7--7-7-7-7--8-----8-|---8----8--8--8--8--8----|
|--8-----8--8-8-8-8--8-----8-|---8----8--8--8--8--8----|
|--9-----9--9-9-9-9--9-----9-|---9----9--9--9--9--9----|
|--9-----9--9-9-9-9-10----10-|--10---10-10-10-10-10----|
|--7-----7--7-7-7-7-10----10-|--10---10-10-10-10-10----|
|----------------------------|-------------------------|
|
|  H.                Q          +W
|----------------------------|-------------------------|
|--8-----------------5-------|--(5)--------------------|
|-10b12--------------7b9=====|==(7)r-------------------|
|----------------------------|-------------------------|
|----------------------------|-------------------------|
|----------------------------|-------------------------|


  D           A                         C     D     Em

  H.          Q       +E   E E E H      Q.    Q.    Q       +W
|-------------------|------------5----|-------------------|---------|
|-7-----------5-----|-(5)----5---5----|-5-----7-----------|---------|
|-7-----------6-----|-(6)--6-6-6-6----|-5-----7-----0-----|-(0)-----|
|-7-----------7-----|-(7)--7-7-7-7----|-5-----7-----2-----|-(2)-----|
|-5-----------7-----|-(7)--7-7-7-7----|-3-----5-----2-----|-(2)-----|
|-------------5-----|-(5)--5---5------|-------------0-----|-(0)-----|
|
| Q.     Q.   Q       +Q     Q   H      Q.    Q.    Q       +W
|-2------2----0-----|-(0)--------0----|-0-----2-----0-----|-(0)-----|
|-3------3----2-----|-(2)----2---2----|-1-----3-----0-----|-(0)-----|
|-2------2----2-----|-(2)----2---2----|-0-----2-----0-----|-(0)-----|
|-0------0----2-----|-(2)----2---2----|-2-----0-----2-----|-(2)-----|
|-------------0-----|-(0)----0--------|-3-----------2-----|-(2)-----|
|-------------------|-----------------|-------------0-----|-(0)-----|
|

| H.          Q       +W                Q.    Q.    Q       +W
|-------------------|-----------------|-------------------|---------|
|-7-----------5-----|-(5)-------------|-1-----3-----5-----|-(5)-----|
|-9b11--------7b9===|=(7)r------------|-3b5---5b7---7b9===|=(7)r----|
|-------------------|-----------------|-------------------|---------|
|-------------------|-----------------|-------------------|---------|
|-------------------|-----------------|-------------------|---------|


  Em                B
  Gtr III
   E     Q    E Q   Q         +E   E E E E Q.
|---------------------------|------7-7-7-7-7----|
|--7h====8----8-8---7-------|-(7)--7-7-7-7-7----|
|--7h====9----9-9---8-------|-(8)--8-8-8-8-8----|
|--7h====9----9-9---9-------|-(9)--9-9-9-9-9----|
|--7----(7)---7-7---9-------|-(9)---------------|
|-------------------7-------|-(7)---------------|
|
| Gtr II
|  Q        E E E E E     E    E   E E E E Q.
|--7--------7-7-7-7---------|--7---7-7-7-7-7----|
|--8--------8-8-8-8-7-----7-|--7---7-7-7-7-7----|
|--9--------9-9-9-9-8-----8-|--9---9-9-9-9-8----|
|--9--------9-9-9-9-9-----9-|--9---9-9-9-9-9----|
|--7--------7-7-7-7-9-----9-|--9---9-9-9-9-9----|
|-------------------7-------|-------------------|
|
| Gtr IV
|  H.               Q         +W
|---------------------------|-------------------|
|--8----------------7-------|-(7)---------------|
|-10b12-------------9b11====|=(9)r--------------|
|---------------------------|-------------------|
|---------------------------|-------------------|
|---------------------------|-------------------|


  Em                    CVIII
   E     Q     E    Q    Q        +E    E  Q   E  Q.
|------------------------------|---------------8--8----|
|--7h====8-----8----8----8-----|--(8)----------8--8----|
|--7h====9-----9----9----9-----|--(9)----------9--9----|
|--7h====9-----9----9---10-----|-(10)--10-10-----------|
|--7----(7)----7----7---10-----|-(10)--10-10-----------|
|------------------------8-----|--(8)---8--8-----------|
|
|  Q        E  E    E E  Q        +Q       Q   E  Q.
|--7--------7--7----7-7--8-----|--(8)------8---8--8----|
|--8--------8--8----8-8--8-----|--(8)------8---8--8----|
|--9--------9--9----9-9--9-----|--(9)------9---9--9----|
|--9--------9--9----9-9-10-----|-(10)-----10--10-10----|
|--7--------7--7----7-7-10-----|-(10)-----10--10-10----|
|------------------------------|-----------------------|
|
|  Q.          Q.        Q        +W
|------------------------------|-----------------------|
|--8-----------8---------5-----|--(5)------------------|
|-10b12-------10b12------7b9===|==(7)r-----------------|
|------------------------------|-----------------------|
|------------------------------|-----------------------|
|------------------------------|-----------------------|


  D           A                            C5    D5    E5VII
                                           Gtr I

  H.           Q         +E   E E E H      Q.    Q.    E   E   W
|---------------------|-------------5----|-------------------|------|
|-7------------5------|--(5)----5---5----|-------------------|------|
|-7------------6------|--(6)--6-6-6-6----|-5-----7-----9-----|------|
|-7------------7------|--(7)--7-7-7-7----|-5-----7-----9-----|------|
|-5------------7------|--(7)--7-7-7-7----|-3-----5-----7-----|------|
|--------------5------|--(5)--5---5------|-------------------|------|
|
| Q.     Q.    Q         +Q     Q   H      Q.    Q.    E   E   W
|-2------2-----0------|--(0)--------0----|-0-----2-----------|------|
|-3------3-----2------|--(2)----2---2----|-1-----3-----------|------|
|-2------2-----2------|--(2)----2---2----|-0-----2-----------|------|
|-0------0-----2------|--(2)----2---2----|-2-----0-----2-----|------|
|--------------0------|--(0)----0--------|-3-----------2-----|------|
|---------------------|------------------|-------------0-----|------|
|

| H.           Q         +W                Q.    Q.    E   E   W
|---------------------|------------------|-------------------|------|
|-7-----------10------|-(10)-------------|-1-----3-----5-----|------|
|-9b11--------12b14===|=(12)r------------|-3b5---5b7---7b9---|------|
|---------------------|------------------|-------------------|------|
|---------------------|------------------|-------------------|------|
|---------------------|------------------|-------------------|------|


  D5      A5     D5        A5         D5
  Gtr I
  E E  E  E E Q   E    E E  E  E E Q   E
|--------------------|--------------------|
|--------------------|--------------------|
|-7-7-------------x--|-7-7-------------x--|
|-7-7--x--7---7---x--|-7-7--x--7---7---x--|
|-5-5--x--7---7--(5)-|-5-5--x--7---7--(5)-|
|-----(5)-5---5------|-----(5)-5---5------|
|
| Gtr IV
| W                    W
|--------------------|--------------------|
|--------------------|--------------------|
|--------------------|--------------------|
|--------------------|--------------------|
|--------------------|--------------------|
|--------------------|--------------------|


                     Guitar Solo
      A5              G5        G5/F#
  E E  E  E E Q.      E   E   E E   E   E Q
|------------------||-----------------------------|
|------------------||-----------------------------|
|-7-7--------------||-----------------------------|
|-7-7--x--7---7\---||---------5---------5---------|
|-5-5--x--7---7\---||-----5---------5-------------|
|-----(5)-5---5\---||-3---------2---------0-------|
|
| W                   S S S Q     S S S E S S S S
|------------------||-----------------------------|
|------------------||-8-7-5-------8-7-5---8-7-5---|
|------------------||-----------------------------|
|------------------||-----------------------------|
|------------------||-----------------------------|
|------------------||-----------------------------|



  D5      A5         D5          A5            D5
  E     E  E  E E Q   E     E  E  E  E E Q      E
|------------------------|-------------------------|
|------------------------|-------------------------|
|-7-----7-------------x--|--7--7----------------x--|
|-7-----7--x--7---7---x--|--7--7--x--7---7------x--|
|-5-----5--x--7---7--(5)-|--5--5--x--7---7-----(5)-|
|---------(5)-5---5------|-------(5)-5---5---------|
|
| W                        +H.             +Q
|------------------------|-------------------------|
|-8b10===================|=(8)-------------(8)r====|
|------------------------|-------------------------|
|------------------------|-------------------------|
|------------------------|-------------------------|
|------------------------|-------------------------|


      A5                G5    G5/F#
  E E  E  E E Q.        E E E E E  E Q
|---------------------|---------------------|
|---------------------|---------------------|
|-7-7-----------------|---------------------|
|-7-7--x--7---7\------|-----5------5--------|
|-5-5--x--7---7\------|---5-----5-----------|
|-----(5)-5---5\------|-3-----2------0------|
|
| E E  E  E E S S E E   E E E E Q.     +E
|---------------------|---------------------|
|-8-8--8--8---8p5---5-|---------------------|
|-----------------7---|-7-6---6-------------|
|---------------------|-----7---7------(7)/-|
|---------------------|---------------------|
|---------------------|---------------------|


  E5VIB5(type 2)    E5VII     B5(type 2)    E5VII
  E E  E  E  E  Q    E    E E  E  E  E  Q    E
|-----------------------|-----------------------|
|-----------------------|-----------------------|
|-9-9----------------x--|-9-9----------------x--|
|-9-9--x--9-----9----x--|-9-9--x--9-----9----x--|
|-7-7--x--9-----9---(7)-|-7-7--x--9-----9---(7)-|
|-----(7)-7-----7-------|-----(7)-7-----7-------|
|
|                         ~
| H         +E  E E  E    H         +E  E Q
|-----------------------|-----------------------|
|-----------------------|-7---------(7)-5-7-----|
|-----------------8--9--|-----------------------|
|-9---------(9)-9-------|-----------------------|
|-----------------------|-----------------------|
|-----------------------|-----------------------|


          B5(type 2)                A5      A5/Ab
  E   E    E      E E   Q.           E  E E E E E Q
|---------------------------------|-------------------|
|---------------------------------|-------------------|
|-9---9---------------------------|-------------------|
|-9---9----x------9-----9\--------|-------7-----7-----|
|-7---7----x------9-----9\--------|-----7-----7-------|
|---------(7)-----7-----7\--------|--5------4-----2---|
|
|                                    ~~~
|                   |---3---|
| E.    E     E.    Q      +E  Q    +W
|---------------------------------|-------------------|
|-7b9---7-----7b9---7b9r===(7)p5--|-(5)---------------|
|---------------------------------|-------------------|
|---------------------------------|-------------------|
|---------------------------------|-------------------|
|---------------------------------|-------------------|


  E5VII   B5(type 2)      E5VII           B5(type 2)      E5VII
   E    E  E   E     E Q    E      E    E  E   E     E Q    E
|-------------------------------|-------------------------------|
|-------------------------------|-------------------------------|
|--9----9-------------------x---|--9----9-------------------x---|
|--9----9--x---9-------9----x---|--9----9--x---9-------9----x---|
|--7----7--x---9-------9---(7)--|--7----7--x---9-------9---(7)--|
|---------(7)--7-------7--------|---------(7)--7-------7--------|
|
|              ~~~~~~                          ~~~~~~
|  Q       E   H           +E      Q       E   H           +E
|-------------------------------|-------------------------------|
|-10b12-------10b12=======(10)r-|-10b12-------10b12=======(10)r-|
|-------------------------------|-------------------------------|
|-------------------------------|-------------------------------|
|-------------------------------|-------------------------------|
|-------------------------------|-------------------------------|


        B5(type 2)        A5    A5/Ab
   E  E  E E    E Q.      E E E E E E Q
|-----------------------|-------------------|
|-----------------------|-------------------|
|--9--9-----------------|-------------------|
|--9--9--x-9------9\----|-----7-----7-------|
|--7--7--x-9------9\----|---7-----7---------|
|-------(7)7------7\----|-5-----4-----2-----|
|
|  E  E  E S  S E E E E   E E E H       +E
|-----------------------|-------------------|
|-10-10-----------------|-------------------|
|-------11p9h11p9-9s8-8h|=9-9-9-8-------(8)-|
|-----------------------|-------------------|
|-----------------------|-------------------|
|-----------------------|-------------------|


  D5      A5              D5            A5          D5
  E   E    E  E  E   Q     E    E     E  E  E E Q    E
|-----------------------------|-------------------------|
|-----------------------------|-------------------------|
|-7---7--------------------x--|-7-----7--------------x--|
|-7---7----x--7------7-----x--|-7-----7--x--7---7----x--|
|-5---5----x--7------7----(5)-|-5-----5--x--7---7---(5)-|
|---------(5)-5------5--------|---------(5)-5---5-------|
|
| |--3--|                       |-3-|
| E E   E  E  E.   S E. S  E    S S S E  E  E E E E  E
|-----------------------------|-------------------------|
|--------------------5-----7--|-8p7p5----5--------------|
|-7p6------6--7---------------|-------7-----7p6---6h=7--|
|-------7---------------------|-----------------7-------|
|-----------------------------|-------------------------|
|-----------------------------|-------------------------|


      A5
  E E  E  E E   E Q     W
|---------------------|----------------------|
|---------------------|----------------------|
|-7-7-----------------|----------------------|
|-7-7--x--7-----7-----|----------------------|
|-5-5--x--7-----7-----|----------------------|
|-----(5)-5-----5-----|----------------------|
|
| E E  E  E S S E E E   E E E E E E E E a
|---------------------|----------------------|
|-5-7-----8p7p5---5---|---------5-5-5--------|
|---------------7---7-|-6---6-7-------7-7s===|
|---------------------|---7------------------|
|---------------------|----------------------|
|---------------------|----------------------|


  E5VIIB5(type 2)  E5VII     B5(type 2) E5VII
  E  E  E  E E Q    E    E E  E  E E Q   E
|----------------------|--------------------|
|----------------------|--------------------|
|-9--9--------------x--|-9-9-------------x--|
|-9--9--x--9---9----x--|-9-9--x--9---9---x--|
|-7--7--x--9---9---(7)-|-7-7--x--9---9--(7)-|
|------(7)-7---7-------|-----(7)-7---7------|
|
| Q.       Q   Q.        E E  E  Q   Q   E
|----------------------|--------------------|
|----------------------|--------------------|
|-9--------9---8-------|-9-8-----8----------|
|----------------------|------9------9---9--|
|----------------------|--------------------|
|----------------------|--------------------|


      B5(type 2)
  E E  E  E E  E Q        W
|---------------------|--------------------------|
|---------------------|--------------------------|
|-9-9-----------------|--------------------------|
|-9-9--x--9----9------|--------------------------|
|-7-7--x--9----9------|--------------------------|
|-----(7)-7----7------|--------------------------|
|
| E E  E  Q    Q    E    +S  S S S E E E E E E
|---------------------|--------------------------|
|------7--9---10---10-|-(10)-9p8---7-------------|
|-8-9-----------------|----------9---9p8---8-----|
|---------------------|------------------9---9---|
|---------------------|--------------------------|
|---------------------|--------------------------|


  C5      G5          C5            G5           C5

  E   E    E  E E Q    E    E   E    E E E Q      E
|-------------------------|----------------------------|
|-------------------------|----------------------------|
|-5---5----------------x--|-5---5-----------------x----|
|-5---5----x--5---5----x--|-5---5----x-5---5------x----|
|-3---3----x--5---5---(3)-|-3---3----x-5---5-----(3)---|
|---------(3)-3---3-------|---------(3)3---3-----------|
|
| |--3--|                   |--3--|          |---3---|
| E E   E  E  E Q   E  E    E E   E  E Q   E E E     E
|-------------------------|----------------------------|
|-------------------------|----------------------------|
|-5p4p==0--4--5-4---4--5--|-7p4p==0--5p4---4-4-5p====0-|
|-------------------------|----------------------------|
|-------------------------|----------------------------|
|-------------------------|----------------------------|


            G5
  E   E      E  E   E   E Q       W
|-------------------------------|------------------------|
|-------------------------------|------------------------|
|-5---5-------------------------|------------------------|
|-5---5------x--5-------5-------|------------------------|
|-3---3------x--5-------5-------|------------------------|
|-----------(3)-3-------3-------|------------------------|
|
| |--3---|   |---3----|   |-3-|   |-3-| |-3-| |-3-|
| E E   +E   Q    Q   Q   E E E   E E E E E E E E E Q
|-------------------------------|------------------------|
|-------------------------------|------------------------|
|-4p0---(0)--0----0---0---7p0h7-|-0h7p0h7p0h7-0h7p0-7\---|
|-------------------------------|------------------------|
|-------------------------------|------------------------|
|-------------------------------|------------------------|


Verse III
  Q=200
  E5   G5   C5/G     D5/A A5 D5/A
  Q  E Q.   Q    +E  Q  E Q  E   +E
|--------------|------------------------|
|--------------|------------------------|
|-----------5--|-(5)-7--7----7---(7)\---|
|-2--x-5----5--|-(5)-7--7-7--7---(7)\---|
|-2--x-5----3--|-(3)-5--5-7--5---(5)\---|
|-0--0-3----3--|-(3)-5--5-5--5---(5)\---|
|
|                            |---3----|
| W               H.         E E      E
|--------------|-------------7p5--------|
|--------------|----------------------8-|
|--------------|------------------------|
|--------------|------------------------|
|--------------|------------------------|
|--------------|------------------------|


  E5      G5     C5/G         D5/A A
   E  E E Q.     Q        +E  Q  E H
|-----------------------|----------5-------|
|-----------------------|----------5-------|
|----------------5------|-(5)-7--7-6-------|
|--2--2-2-5------5------|-(5)-7--7-7-------|
|--2--2-2-5------3------|-(3)-5--5-7-------|
|--0--0-0-3------3------|-(3)-5--5-5-------|
|
| +Q.     E  Q.     +E     H.         Q
|-----------------------|------------------|
|-(8)-----8s10-----(10)s|==8---------------|
|-----------------------|------------------|
|-----------------------|------------------|
|-----------------------|------------------|
|-----------------------|------------------|


  E5   G5   C5/G     D5/A A5 D5/A     E5    G5   C5/G     D5/A A5
  Q  E Q.   Q    +E  Q  E Q  E +E     E E E Q.   Q    +E  Q  E Q  Q
|--------------|--------------------|---------------|-----------------|
|--------------|--------------------|---------------|-----------------|
|-----------5--|-(5)-7--7----7-(7)\-|------------5--|-(5)-7--7--------|
|-2--x-5----5--|-(5)-7--7-7--7-(7)\-|-2-2-2-5----5--|-(5)-7--7-7--7\--|
|-2--x-5----3--|-(3)-5--5-7--5-(5)\-|-2-2-2-5----3--|-(3)-5--5-7--7\--|
|-0--0-3----3--|-(3)-5--5-5--5-(5)\-|-0-0-0-3----3--|-(3)-5--5-5------|


  E5   G5   C5/G     D5/A A5 D5/A     E5    G5   C5/G     D5/A A5
  Q  E Q.   Q    +E  Q  E Q  E +E     E E E Q.   Q    +E  Q  E Q  Q
|--------------|--------------------|---------------|----------------|
|--------------|--------------------|---------------|----------------|
|-----------5--|-(5)-7--7----7-(7)\-|------------5--|-(5)-7--7-------|
|-2--x-5----5--|-(5)-7--7-7--7-(7)\-|-2-2-2-5----5--|-(5)-7--7-7--0--|
|-2--x-5----3--|-(3)-5--5-7--5-(5)\-|-2-2-2-5----3--|-(3)-5--5-7--0--|
|-0--0-3----3--|-(3)-5--5-5--5-(5)\-|-0-0-0-3----3--|-(3)-5--5-5-----|


Chorus
  Q=190
  G              Gsus2/FG      C              G/B    N.C.
  H.       Q      H     H      H.       Q      H     H
|--------------|-------------|--------------|-------------|
|-3-------(3)--|-(3)---------|-1-------(1)--|-------------|
|-0-------(0)--|-(0)---------|-0-------(0)--|-(0)---------|
|-0-------(0)--|-(0)---------|-2--------2---|--0-----0----|
|-2--------2---|--0-----2----|-3--------3---|--2-----0----|
|-3--------3---|--2-----3----|--------------|-------------|


  G5               A5           D
  H.      E +E     H.      Q    Q  E Q  E Q    E Q  E E E E E
|----------------|------------|--------------|----------------|
|----------------|------------|-7--7-7--7-7--|-7-7----7---7---|
|----------------|------------|-7--7-7--7-7--|-7-7--7-7-7-7-7-|
|-5-------5-(5)/-|-7-------7--|-7--7-7--7-7--|-7-7--7-7-7-7-7-|
|-5-------5-(5)/-|-7-------7--|-5--5-5--5-5--|-5-5--5---5---5-|
|-3-------3-(3)/-|-5-------5--|--------------|----------------|


  G              Gsus2/FG      C              G/B    N.C.
  H.       Q      H     H      H.       Q      H     H
|--------------|-------------|--------------|-------------|
|-3-------(3)--|-(3)---------|-1-------(1)--|-------------|
|-0-------(0)--|-(0)---------|-0-------(0)--|-(0)---------|
|-0-------(0)--|-(0)---------|-2--------2---|--0-----0----|
|-2--------2---|--0-----2----|-3--------3---|--2-----0----|
|-3--------3---|--2-----3----|--------------|-------------|


  G5            A5           D
  H.      Q     H.      Q    Q  E E E E E E   E H..
|-------------|------------|----------------|----------|
|-------------|------------|-7--7-7-7-7-7-7-|-7--------|
|-------------|------------|-7--7-7-7-7-7-7-|-7--------|
|-5-------5/--|-7-------7--|-7--7-7-7-7-7-7-|-7--------|
|-5-------5/--|-7-------7--|-5--5-5-5-5-5-5-|-5--------|
|-3-------3/--|-5-------5--|----------------|----------|


Bridge
  G    Gsus2/F#  C    G/B       G5   A5   D
  Q.   Q  Q.     Q.   Q  Q.     E Q  E Q  Q    +E  E E E E Q.
|--------------|--------------|--------------|------------------|
|--------------|--------------|-----------7--|-(7)-7-7-7-7------|
|-0----0-------|-0----0-------|-----------7--|-(7)-7-7-7-7------|
|-0----0-------|-2----0-------|-5----7----7--|-(7)-7-7-7-7------|
|-2----0-------|-3----2-------|-5----7----5--|-(5)-5-5-5-5------|
|-3----2-------|--------------|-3----5-------|------------------|


  G    Gsus2/F#  C    G/B       G5   A5   D
  Q.   Q  Q.     Q.   Q  Q.     E Q  E Q  Q    +E  E E E E Q.
|--------------|--------------|--------------|------------------|
|--------------|--------------|-----------7--|-(7)-7-7-7-7------|
|-0----0-------|-0----0-------|-----------7--|-(7)-7-7-7-7------|
|-0----0-------|-2----0-------|-5----7----7--|-(7)-7-7-7-7------|
|-2----0-------|-3----2-------|-5----7----5--|-(5)-5-5-5-5------|
|-3----2-------|--------------|-3----5-------|------------------|


   Breakdown
    Q=200
    D5  A5         D5        A5         D5
    E E  E  E E Q   E    E E  E  E E Q   E
||---------------------|--------------------|
||o--------------------|--------------------|
||--7-7-------------x--|-7-7-------------x--|
||--7-7--x--7---7---x--|-7-7--x--7---7---x--|
||o-5-5--x--7---7--(5)-|-5-5--x--7---7--(5)-|
||------(5)-5---5------|-----(5)-5---5------|


      A5             G5    G5/F#
  E E  E  E E Q.     E E E E E E Q
|------------------|------------------||
|------------------|-----------------o||
|-7-7--------------|------------------||
|-7-7--x--7---7\---|-----5-----5------||
|-5-5--x--7---7\---|---5-----5-------o||
|-----(5)-5---5\---|-3-----2-----0----||


  E5VIB5(type 2) E5VII     B5(type 2) E5VII     B5(type 2)     A5    A5/Ab
  E E  E  E E Q   E    E E  E  E E Q   E    E E  E  E E Q.     E E E E E E Q
|--------------------|--------------------|------------------|----------------|
|--------------------|--------------------|------------------|----------------|
|-9-9-------------x--|-9-9-------------x--|-9-9--------------|----------------|
|-9-9--x--9---9---x--|-9-9--x--9---9---x--|-9-9--x--9---9\---|-----7-----7----|
|-7-7--x--9---9--(7)-|-7-7--x--9---9--(7)-|-7-7--x--9---9\---|---7-----7------|
|-----(7)-7---7------|-----(7)-7---7------|-----(7)-7---7\---|-5-----4-----2--|


  E5VIB5(type 2) E5VII     B5(type 2) E5VII
  E E  E  E E Q   E    E E  E  E E Q   E
|--------------------|--------------------|
|--------------------|--------------------|
|-9-9-------------x--|-9-9-------------x--|
|-9-9--x--9---9---x--|-9-9--x--9---9---x--|
|-7-7--x--9---9--(7)-|-7-7--x--9---9--(7)-|
|-----(7)-7---7------|-----(7)-7---7------|


      B5(type 2)     A5    A5/Ab
                              ~~~

  E E  E  E E Q.     E E E E +Q   E E
|------------------|------------------|
|------------------|------------------|
|-9-9--------------|------------------|
|-9-9--x--9---9\---|-----7------------|
|-7-7--x--9---9\---|---7------------4-|
|-----(7)-7---7\---|-5-----4-(4)--2---|


  N.C.
  E E E E E Q  E   E E E E E Q  E   E E E E E E Q    H..       E
|----------------|----------------|----------------|-------------|
|----------------|----------------|----------------|-------------|
|----------------|----------------|----------------|-------------|
|----------------|----------------|----------------|-------------|
|-5------------4-|-5------------4-|-5--------------|-----------6-|
|---3-4-5---5----|---3-4-5---5----|---3-4-5---5----|-------------|


  N.C.
  E E E E E Q  E   E E E E E Q  E   E E E E E E Q    H..       E
|----------------|----------------|----------------|-------------|
|----------------|----------------|----------------|-------------|
|----------------|----------------|----------------|-------------|
|----------------|----------------|----------------|-------------|
|-7------------6-|-7------------6-|-7--------------|-----------7-|
|---5-6-7---7----|---5-6-7---7----|---5-6-7---7----|-------------|


                                                   H.=H
  N.C.
  E E E E E Q  E   E E E E E Q  E   E E E E E E Q    W
|----------------|----------------|----------------|------|
|----------------|----------------|----------------|------|
|----------------|----------------|----------------|------|
|----------------|----------------|----------------|------|
|-8------------7-|-8------------7-|-8--------------|------|
|---6-7-8---8----|---6-7-8---8----|---6-7-8---8----|------|


Outro
  Q=150
  G            Gsus2/FG      C               G/B    G5/A
  Gtr I
  W            +W            W               +W
|-3----------|-(3)---------|-3-------------|-(3)---------|
|-3----------|-(3)---------|-1-------------|-(1)---------|
|-0----------|-(0)---------|-0--------0----|--0-----0----|
|-0-------0--|--0-----0----|-2--------2----|--0-----0----|
|-2-------2--|--0-----2----|-3--------3----|--2-----0----|
|-3-------3--|--2-----3----|---------------|-------------|
| H.      Q     H     H      H.       Q       H     H
|
| Gtr IV
| H.      Q     H     H      H.       Q       H     H
|------------|-------------|---------------|-------------|
|------------|-------------|---------------|-------------|
|-4-------4--|--2-----4----|-4b5------4b5--|--4-----2----|
|------------|-------------|---------------|-------------|
|------------|-------------|---------------|-------------|
|------------|-------------|---------------|-------------|


  G5              A5           D5 D5/D5tD5/A(D5pe 2D5/AD5yD5/A(type 2)
  H.      E +E    H.      Q    W             +Q    H.
|---------------|------------|-------------|-----------------|
|---------------|------------|-------------|-----------------|
|---------------|------------|-7-----------|-(7)-------------|
|-5-------5-(5)S|=7-------7--|-7--7--7--7--|--7--7-7---7--7--|
|-5-------5-(5)S|=7-------7--|-5--0--5--0--|--5--5-0---5--0--|
|-3-------3-(3)S|=5-------5--|-------------|-----------------|
|                              Q  Q  Q  Q     E  E Q   Q  Q
|
|                                             ~~~
| H.      Q       H.      Q    W             +W
|---------------|------------|-------------|-----------------|
|---------------|------------|-------------|-----------------|
|-4-------4-----|-6-------6--|-7-----------|-(7)-------------|
|---------------|------------|-------------|-----------------|
|---------------|------------|-------------|-----------------|
|---------------|------------|-------------|-----------------|


  G            Gsus2GF#    C            G/B  Csus2/A
  Gtr I
  H.      Q    H    H      H.      Q    H    H
|-3----------|-----------|-0-------0--|-----------|
|-3-------3--|-3----3----|-1-------1--|-1----1----|
|-0-------0--|-0----0----|-0-------0--|-0----0----|
|-0-------0--|-0----0----|-2-------2--|-0----0----|
|-2-------2--|-0----2----|-3-------3--|-2----0----|
|-3-------3--|-2----3----|------------|-----------|
|
| Gtr IV
| H.      Q    H    H      H.      Q    H    H
|-3-------3--|-2----3----|-8-------8--|-7----5----|
|------------|-----------|------------|-----------|
|-4-------4--|-2----4----|-9-------9--|-7----5----|
|------------|-----------|------------|-----------|
|------------|-----------|------------|-----------|
|------------|-----------|------------|-----------|
  H.      Q    H    H      H.      Q    H    H


  G5           D5            G              G
  H.      Q    E E H    Q     W               W
|------------|-------------|--3-----------|---3-----|
|------------|-------------|--3-----------|---3-----|
|------------|-7--------7--|--0-----------|---0-----|
|-5-------5--|-7--------7--|--0-----0-----|---0-----|
|-5-------5--|-5--------5--|--2--4-----0--|---2-----|
|-3-------3--|-------------|--3-----------|---3-----|
|                             Q  Q  Q  Q
|
|                                             ~~~~
| H.      Q    E E H    Q     W              +W
|-7-------7--|-5--------5--|--3-----------|--(3)----|
|------------|-------------|--------------|---------|
|-7-------7--|-5--------5S=|=12-----------|-[12]----|
|------------|-------------|--------------|---------|
|------------|-------------|--------------|---------|

|------------|-------------|--------------|---------|
  H.      Q    E E H    Q     W               W


                                  G
    +W              +W             Q  H.
|---(3)---------|---(3)---------|--3--------*|
|---(3)---------|---(3)---------|--3--------*|
|---(0)---------|---(0)---------|--0--------*|
|---(0)---------|---(0)---------|--0--------*|
|---(2)---------|---(2)---------|--2--------*|
|---(3)---------|---(3)---------|--3--------*|
|

|    ~~~~~~~~~~~~~~~~~~~~
|   +W              +W             Q  H.
|---(3)---------|---(3)---------|--3--------*|
|---------------|---------------|-----------*|
|-([12])--------|-([12])--------|-12--------*|
|---------------|---------------|-----------*|
|---------------|---------------|-----------*|
|---------------|---------------|-----------*|
    +W              +W             Q  H.


Lyrics
------
Ooh, there's no bread, let 'em eat cake
There's no end to what they'll take
Flaunt the fruits of noble birth
Wash the salt into the earth

But they're marching to Bastille Day.
La guillotine will claim her bloody prize.
Free the dungeons of the innocent
The king will kneel
And let his kingdom rise.

Ooh, blood stained velvet, dirty lace,
naked fear on every face
See them bow their heads to die
As we would bow as they rode by

And we're marching to Bastille Day
La guillotine will claim her bloody prize
Sing, oh choirs of cacophony
The king has kneeled
To let his kingdom rise.


Bridge/Solo

Lessons taught but never learned
All around us anger burns
Guide the future by the past
Long ago the mold was cast

For they marched up to Bastille Day
La guillotine claimed her bloody prize
Hear the echoes of the centuries
power isn't all that money buys.


I Think I'm Going Bald:


Main Riff                    Pre-chorus
  A A     A     A       D G   D D D G/C G/B G
e-----------------------2-3-|-2-2-2---3---3-3-|
B-2-2-----2-----2-2-----3-0-|-3-3-3---3---3-3-|
G-2-2-----2-----2-2-----2-0-|-2-2-2---0---0-0-|
D-2-2-----2-----2-2-----0-0-|-0-0-0--0---0--0-|
A-0-0-3h4-0-----0-0-3h4---2-|-------3---2---2-|
E-----------3h4-----------3-|---------------3-|
 Chorus 2X
e---------|-------------|------------------------|
B---2-2---|-------------|---2-2------------------|
G---2-2---|-------------|---2-2------------------|
D-2-2-2---|-------2-----|-2-2-2---------------2--|
A-2-0-0---|-----2-------|-2-0-0---2-1-0-----2----|
E-0-----3-|-3-4-----3-4-|-0-----3-------3-4------|
Solo 
e--------------------|-------------|--------------------------------|
B-----5-8p5--8p5-----|-------------|--------------------------------|
G-7^9------7----7-5-7|-7^9-5h7p5---|----5-5-7^9-7h9p7-5-------------|
D--------------------|-----------7-|-5h7-7-----------7-7-5----------|
A--------------------|-------------|----------------------7-6-5-----|
E--------------------|-------------|---------------------------/8\/5|

e-------8-8^10-9^11-10^12-11^13-12^14--------|---------------------|
B---8h10------------------------------5-5-8--|-8p5-8p5-8p5-8p5-5-8-|
G-/9-----------------------------------------|----5---5---5---5----|
D--------------------------------------------|---------------------|
A--------------------------------------------|---------------------|
E--------------------------------------------|---------------------|

e----------------|  The solo at the end is pretty much a free spot for your
B----------------|  own solo. Alex just boogies in the key of "A" 
G-7^9^7-5h7p5----|  (Penatonic) and "E" (Penatonic).
D------------7---|  This song is a good Jam for new guitarists.
A----------------|  (This solo is quite a lot like the 2nd Bastille Day solo)
E----------------|



Lakeside Park:



[Riff 1]
   A5   G    D   C  G  A                   G Gsus4
e:-5--3-3--3-2------------|--5--3-3--3-2---7-8\-------------|
B:-5----3--3-3---3--3--2--|--5----3--3-3---8-8\--2----------|
G:-2----0----2---0--0--2--|--2----0----2---7-7\--2----------|
D:------0----0---x--0--2--|-------0----0---------2----------|
A:---------------3--x--0--|----------------------0----------|
E:------------------3-----|---------------------------------|

[Riff 2] - with phaser                       _________________________
     Dm7                        G         C  |1.          |2.
e:---5--5~--5--5--5--6p5----|---3--3-3----0--|------------|-----------|
B:---6------6------------6--|---3--3-3----1--|------------|-----------|
G:o--5------5---------------|---0--0-0----0--|--0h2-0-0--o|---0tr7----|
D:o--0------0---------------|---0--0-0----2--|-----------o|-----------|
A:--------------------------|-------------3--|------------|-----------|
E:--------------------------|----------------|------------|-----------|

[Riff 3] - with phaser
  Fmaj7               Cmaj7                                     phaser off
e:---------------------------------------|-----------------------------|
B:---------------------------------------|--------------------------2~-|
G:----2~----2~----2~-------0~----0~---0~-|----2~----2~----2~-----0--2~-|
D:-3~----3~-------------2~----2~---------|-3~----3~-----------2~----2~-|
A:---------------------------------------|--------------------------0~-|
E:---------------------------------------|-----------------------------|

[Riff 4] - Slow (with phaser)
    D            C9  C   Cmaj7    Csus2  Cmaj7
e:--5-5-5-5-7----3-3-3--3-------|---------------------------2~-|
B:--7---7---7----3---1----0-----|-----3-----3---------------3~-|
G:--7---7--------0---0----0-----|---5-----4----2-0----------2~-|
D:--0---0--------2---2----2-----|-5-----5----------4----2---0~-|
A:------------------------------|---------------------3---0----|
E:------------------------------|------------------------------|

Progression:

[Riff 1] x2

[Riff 1] x4 /w lyrics:

Midway hawkers calling, "Try your luck with me."
Merry-go-round wheezing the same old melody.
A thousand ten-cent wonders, who could ask for more.
A pocketful of silver, the key to heaven's door.

[Riff 2] x2 /w lyrics:

Lakeside Park, willows in the breeze.
Lakeside Park, so many memories.
Laughing rides, midway lights,
shining stars on summer nights.

[Riff 3] x1

[Riff 1] x2

[Riff 1] x4 /w lyrics:

Days of barefoot freedom, racing with the waves.
Nights of starlit secrets, crackling driftwood flames.
Drinking by the lighthouse, smoking on the pier,
Still, we saw the magic was fading every year.

[Guitar Solo] over [Riff 1] x4

e:--------------------------------------------------------12---------|
B:----------------------------7-8-10-------12-14-15-14-15------------|
G:---------------------6-7-9---------6~----------------------14------|
D:--7p5s2---------7-7------------------------------------------------|
A:---------4~--------------------------------------------------------|
E:-------------------------------------------------------------------|

e:-------------------------------------------------|-----------------|
B:-------------------------------------------------|-----------------|
G:-12-11-12--14--12p11-----11----------------------|-14-12p11--------|
D:---------------------14-----14p12--11-12-12s14~--|----------14-----|
A:-------------------------------------------------|-----------------|
E:-------------------------------------------------|-----------------|

e:-------------------------------------------------------------------|
B:-12-----------12---------------------------------------------------|
G:----14-12p11-----14-12p11-----9s6.-----6p4p0-4-6~-4h6p4-0----------|
D:------------14------------14---------------------------------------|
A:-------------------------------------------------------------------|
E:-------------------------------------------------------------------|

e:------------------------------------------------------------12--15-|
B:------------13-15-15b17r15p13----13-15--15b17r15b17~~-15b17--------|
G:-14-14~--14-------------------14-----------------------------------|
D:-------------------------------------------------------------------|
A:-------------------------------------------------------------------|
E:-------------------------------------------------------------------|

e:-15b17-15-15b17-15b17~~\-------------------------------------------|
B:-------------------------------------------------------------------|
G:-------------------------------------------------------------------|
D:-------------------------------------------------------------------|
A:-------------------------------------------------------------------|
E:-------------------------------------------------------------------|

[Riff 2] x2 /w lyrics:

Lakeside Park, willows in the breeze.
Lakeside Park, so many memories.
Laughing rides, midway lights,
shining stars on summer nights.

[Riff 4] x2

[Riff 4] x2 /w lyrics:

Everyone would gather on the 24th of May,
sitting in the sand to watch the fireworks display.

Dancing fires on the beach, singing songs together;
Though it's just a memory, some mem'ries last forever.

[Riff 4] x3

Last half of [Riff 4] x3 with this riff:

e:-------------------------------|
B:-------------------------------|
G:--5~--4~---2-0-----------------|
D:---------------4----2----0~----|
A:------------------3---0--------|
E:-------------------------------|

Final cadence:

e:--<12>~~~--------------------------|
B:-----------<7>~~~------------------|
G:---------------------<7>~~~--------|
D:-----------------------------------|
A:-----------------------------------|
E:-----------------------------------|



The Necromancer:


Part I (Into The Darkness):


[Riff 1]
      Em7  Dsus4/E D/E    Em7      C     G      D/F#
e:------3------3---2-------3----------------------------------------|
B:------3------3---3-------3----------------------------------------|
G:------0------2---2-------0-----------0----------------------------|
D:------2------2---2-------2---------2-------0----------------------|
A:------2------------------2-(0-2)-3-------2-------0----------------|
E:--0~--0---0~---------0~--0-------------3-------2------------------|

[Fill 1]             [Fill 2]      [Fill 3]            [FIll 4]
e:-----------------|-------------|-------------------|---------------|
B:-3sss7~~ss3ss5~--|---15b17~~---|--8s12--12s8-8s10~-|---------------|
G:-----------------|-------------|-------------------|-11s7-7s9--4---|
D:-----------------|-------------|-------------------|-------------5.|
A:-----------------|-------------|-------------------|---------------|
E:-----------------|-------------|-------------------|---------------|


Progression:

[Riff 1] /w lyrics:

As grey traces of dawn tinge the eastern sky,
The three travellers, men of Willow Dale, emerge from the forest shadow.
Fording the River Dawn, they turn south,
Journeying into the dark and forbidding lands of the Necromancer.
Even now the intensity of his dread power can be felt,
Weakening the body and saddening the heart.
Ultimately they will become empty, mindless spectres,

With [Riff 1] and [Fill 1]:

Stripped of will and soul.

Only their thirst for freedom gives them hunger for vengeance.

[Solo] over [Riff 1]:

e:--3s7-7s10~-----14~~---------------12s7s12-----------------------------|
B:-----------------------15b17~~~------------12s10s12--7s3s5~------------|
G:--------------------------------------------------------------7~----7~-|
D:-----------------------------------------------------------------------|
A:-----------------------------------------------------------------------|
E:-----------------------------------------------------------------------|

[increasing volume]

e:--------12~~------------------------------------------------10p7---|
B:--7s12-------7~~~s12--------------------------8-10b12-10b12--------|
G:-------------------------7~---7b9r7~--7b9r7~-----------------------|
D:-------------------------------------------------------------------|
A:-------------------------------------------------------------------|
E:-------------------------------------------------------------------|

e:--10b12r10---------------------------------------------------------|
B:---------------12~~------8~----------------------------------------|
G:----------------------------9~-------------------------------------|
D:-------------------------------------------------------------------|
A:-------------------------------------------------------------------|
E:-------------------------------------------------------------------|

With [Riff 1]:

Silence shrouds the forest, as the birds announce the dawn.
Three travellers ford the river and southward journey on. [Fill 2]
                   [Fill 3]
The road is lined with peril, the air is charged with fear.
                   [Fill 4]
The shadow of his nearness weighs like iron tears.

[Solo] - This is the 'louder' or more prominent solo

e:-----------------------15-------------15b17-15b17~--17b19----------|
B:-15b17~---15b17-15b17~~~~~b17--------------------------------------|
G:-------------------------------------------------------------------|
D:-------------------------------------------------------------------|
A:-------------------------------------------------------------------|
E:-------------------------------------------------------------------|
                 slow bend
                     \/
e:-17b19-17-17b19~-17b19-17-17-17-15-----15---------------------------|
B:------------------------------------17----17~---17b19---17b19~------|
G:--------------------------------------------------------------------|
D:--------------------------------------------------------------------|
A:--------------------------------------------------------------------|
E:--------------------------------------------------------------------|

e:--------------------------------|----------------------------------|
B:-12-15~-------------------------|----------------------------------|
G:--------14-12~--------12-12~\---|----------------12b14~~14~~r12----|
D:----------------12h14-----------|-------12-14~~--------------------|
A:--------------------------------|-14~~-----------------------------|
E:--------------------------------|----------------------------------|

e:-------|-----------------------------------|-----------------------|
B:-------|-----------------------------------|-----------------------|
G:-12p9~-|--11b12r11--11b12r11b12r11--9~-----|-----------------------|
D:-------|-----------------------------------|--12~------------------|
A:-------|-----------------------------------|------10-12-10---------|
E:-------|-----------------------------------|---------------12~~\---|

e:-------------------------------------------------------------------|
B:-------------------------------------------------------------------|
G:-----------12~------------12---------------------------------------|
D:-12--12-12-----12-12h14~-----14~-----------------------------------|
A:-------------------------------------------------------------------|
E:-------------------------------------------------------------------|


Part II (Under The Shadow):


[Riff 1]                       [Riff 2]
e:-------------|-------------|--------------------------------|
B:-------------|-------------|--------------------------------|
G:-------------|-------------|--------------------------------|
D:-------------|-------------|--------------------------------|
A:--7~----7-7.-|--7~----7-5.-|-----------5-6-7----------------|
E:-----0-------|-----0-------|---3-5-6-7----------------------|

[Riff 3]                      [Riff 4]
e:------------|-------------|----------------------------------------|
B:------------|-------------|----------------------------------------|
G:------------|-------------|--12--12\-------------------------------|
D:------------|-------------|--12--12\-------------------------------|
A:-------7-7.-|--------7-5.-|--10--10\-------------------------------|
E:-0~-0-------|--0~-0-------|----------------------------------------|

Progression:

[Riff 1] x2
[Riff 1] x1 w/ [Riff 4] in between

[Riff 2] x1

[Riff 3] x1

With [Riff 1] x4:

Brooding in the tower, watching o'er his lands.
Holding every creature, helplessly they stand.
Gaze into his prisms, knowing they are near.
Lead them to the dungeons.
Spectres numb with fear, they bow defeated.

[Riff 1] x1 w/ [Riff 4] in between

[Riff 2] x1

[Riff 3] x1 w/ [Riff 4] in between

[Riff 2] x1

[Bass] - played during and after gtr solo

G:-------------------------------------------------------------------|
D:--5~------------------------5~-------------------------------------|
A:----7--5-6-7------7~-5-6-7----7~-5-6-7-----------------------------|
E:--------------0-0----------------------3.--5.----------------------|

[Guitar Solo] - I only caught bits and pieces of it

e:-------------------------------------------------------------------|
B:------------------------------------------------------------13b15~-|
G:-------------------------------------------------------------------|
D:--14b16r14s12~~--[12]-[12]-[12]-12-12-12--12h14~~--14-14-14--------|
A:-------------------------------------------------------------------|
E:-------------------------------------------------------------------|

e:-------------------------------------------------------------------|
B:-13b15r13--13-12-10-----13p12p10-----------------------------------|
G:--------------------12--------------------??-----------------------|
D:-------------------------------------------------------------------|
A:-------------------------------------------------------------------|
E:-------------------------------------------------------------------|

e:---------------------------------------------------------15b17r15~-|
B:--15b17~--15-15b17-15b17~--15-15b17--15b17-17b19-15b17~------------|
G:-------------------------------------------------------------------|
D:-------------------------------------------------------------------|
A:-------------------------------------------------------------------|
E:-------------------------------------------------------------------|

e:-15b17r15~-----15p14p12.--14p12p10.--12p10p8--12-10b12~~-----------|
B:-------------------------------------------------------------------|
G:-------------------------------------------------------------------|
D:-------------------------------------------------------------------|
A:-------------------------------------------------------------------|
E:-------------------------------------------------------------------|

e:----------------------------------------|--------------------------|
B:----------------------------------------|--[12]-[11]-[12]-[11]-----|
G:-13p12p10h12b14--13p12p10h12b14---------|--------------------------|
D:-----------------------------------??---|--------------------------|
A:----------------------------------------|--------------------------|
E:----------------------------------------|--------------------------|

e:-------------------------------------------------------------------|
B:-[12]-[11]-[12]-[11]-[12]-[11]-[12]-[11]-[12]-[11]-[12]-[11]-[12]--|
G:-------------------------------------------------------------------|
D:-------------------------------------------------------------------|
A:-------------------------------------------------------------------|
E:-------------------------------------------------------------------|

e:-------------------------------------------|-----------------------|
B:-[12]~~---[12]-[11]--[(14)r12]-------------|-----------------------|
G:-------------------------------14p12-------|-9b12r9-9p7---7--------|
D:-------------------------------------14~~--|------------9----------|
A:-------------------------------------------|-----------------------|
E:-------------------------------------------|-----------------------|

e:------------------|------------------------------------------------|
B:------------------|------------------------------------------------|
G:-9b12r9-9p7---7---|--9b11r9b11r9b11r9~--9p7---9-9-7~----------etc--|
D:------------9-----|-------------------------9----------------------|
A:------------------|------------------------------------------------|
E:------------------|------------------------------------------------|


It just keeps going on and on! Anybody wanna take a crack at the rest?


(Repeat 3 times)
e:-------------------------------------------------------------------|
B:-------------------------------------------------------------------|
G:o-----------------------------------------------------------------o|
D:o--5~---------------------------5~--------------------------------o|
A:------7~--5-6-7-------7~-5-6-7-----7~--5-6-7-----------------------|
E:-----------------0-0--------------------------3.-5.----------------|

                                          E5
e:-------------------------------------------------------------------|
B:-------------------------------------------------------------------|
G:-------------------------------------------------------------------|
D:--5~-4~-------5~-4~-------5~-4~---------2~-------------------------|
A:----------------------------------------2~-------------------------|
E:--------0--0.-------0--0.--------0--0.--0~-------------------------|

--

[Guitar Solo] - in the key of G (some of it's based around the 5th fret 
in the A Dorian mode)

Sorry folks, it's just too fast for me.

But here is the end to part II:

e:----------------------------------------------------------|
B:----------------------------------------------------------|
G:o--------------------------------------------------------o|
D:o--------------------------------------------------------o|
A:-----------------------------------3----------------------|
E:-3h5-5-5-5--3h5-5-5-5--3h5-5-5-5------0--3----------------|

e:----------------------------------------------------------|
B:----------------------------------------------------------|
G:o--------------------------------------------------------o|
D:o--------------------------------------------------------o|
A:-----------------------------------3.---------------------|
E:-3h5-5-5-5--3h5-5-5-5--3h5-5-5-5--------------------------|


Part III (Return Of The Prince):


[Intro]
   E           B(addE)    A(addB)    B(addE)
e:--------0---------0----------0----------0--------------------------|
B:----------0---------0----------0----------0------------------------|
G:----13---------8----------6----------8-----------------------------|
D:-14----------9----------7----------9-------------------------------|
A:-------------------------------------------------------------------|
E:-------------------------------------------------------------------|

[Riff 1]
    E          B(addE)   A(addB)    B(addE)
e:-------------------------------------------------------------------|
B:--12-12-12---7--7-----5--5--5-----7--7-----------------------------|
G:--13-13-13---8--8-----6--6--6-----8--8-----------------------------|
D:--14-14-14---9--9-----7--7--7-----9--9-----------------------------|
A:-------------------------------------------------------------------|
E:-------------------------------------------------------------------|

[Riff 2]
    E          B       A          B
e:--0--0--0----2--2---------------2-2--------------------------------|
B:--0--0--0----4--4----2----------4-4--------------------------------|
G:--1--1--1----4--4----2----------4-4--------------------------------|
D:--2--2--2----4--4----2----------4-4--------------------------------|
A:--2--2--2----2--2----0----------2-2--------------------------------|
E:--0--0--0----------------------------------------------------------|

[Intro] x5

With [Intro]:

Enter the Champion, Prince By-Tor appears.
To battle for freedom from chains of long years.
The spell has been broken, the Dark Lands are bright.
The wraith of the Necromancer soars away in the night.

[Riff 1] and [Intro] x8

[Riff 1] and [Intro] w/ lyrics:

Stealthily attacking, By-Tor slays his foe.
The men are free to run now, from labyrinths below.
Wraith of the Necromancer shadows through the sky.
Another land to darken with evil prism eye.

[Riff 1] and [Intro] continue throughout; now joined by [Riff 2]

[Guitar Solo] - Did my best; Hope it's right!

e:-------------------------------------------------------------------|
B:-------------------------------------------------------------------|
G:-14b16~~--14b16--14b16--14b16~~~~r14-----------12h13p12-----12-----|
D:--------------------------------------------14-----------14--------|
A:-------------------------------------------------------------------|
E:-------------------------------------------------------------------|

e:---------------------------------------------------------------------|
B:---------------------------------------------------------------------|
G:-13~~---13b14~~-----13b14r13p12-------12-----------------------------|
D:----------------------------------14-----14-12-14~~---14p12----------|
A:------------------------------------------------------------14p12----|
E:---------------------------------------------------------------------|

e:----------------------------------------------------------------------|
B:----------------------------------------------------------------------|
G:-----------------------------------------------9-9-9~--11b13~13~13r11-|
D:-------------------------------------9~--9h11-------------------------|
A:-------------------9----------10h12-----------------------------------|
E:--12h14p12~--10h12---12-12~-------------------------------------------|

e:-------------------------------------------------------------------|
B:------------------------------14p12~--12-14-12-12~--14p12-12~------|
G:-11b13~13~13r11p9--11b13r11----------------------------------------|
D:-------------------------------------------------------------------|
A:-------------------------------------------------------------------|
E:-------------------------------------------------------------------|

e:--14b16--14b16~--15b17-14b16-14-12--14--12------12~----------------|
B:--------------------------------------------14---------14p12~------|
G:---------------------------------------------------------------14--|
D:-------------------------------------------------------------------|
A:-------------------------------------------------------------------|
E:-------------------------------------------------------------------|

e:----------------12-----14p12----12--14p12----12--14p12----12-------|
B:-12~-14p12~--12----12--------12-----------12-----------12----------|
G:-------------------------------------------------------------------|
D:-------------------------------------------------------------------|
A:-------------------------------------------------------------------|
E:-------------------------------------------------------------------|

e:-14p12----12--14p12----14p12----12--14p12----12--14p12----12-------|
B:-------12-----------12-------12-----------12-----------12----------|
G:-------------------------------------------------------------------|
D:-------------------------------------------------------------------|
A:-------------------------------------------------------------------|
E:-------------------------------------------------------------------|

e:---14p12----12--14p12----12--14p12---------------------------------|
B:---------12-----------12-----------12------------------------------|
G:---------------------------------------14-16-----16----------------|
D:------------------------------------------16b18--16b18~~~~b18------|
A:-------------------------------------------------------------------|
E:-------------------------------------------------------------------|

e:-------------------------------------------------------------------|
B:-------------------------------------------------------------------|
G:-16-----16------------------------16---------16--------------------|
D:-16b18--16b18~~~r16--16p14----14--16b18r16~--16b18r16----14-14~----|
A:---------------------------16-------------------------16-----------|
E:-------------------------------------------------------------------|

e:-------------------------------------------------------------------|
B:-------------------------------------------------------------------|
G:-------------------------------------------------------------------|
D:--11-9-------------------------14----14-14------14----14----14-14--|
A:-------11-9----------12h14~-14----14-------14~-----14----14--------|
E:------------12-12~~------------------------------------------------|

e:---------------------------|---------------------------------------|
B:---------------------------|-12--15-14-12-12-14-15b17-15b17~~------|
G:---------------------------|---------------------------------------|
D:-----14-----11h12~--12h14~-|---------------------------------------|
A:-14-----14-----------------|---------------------------------------|
E:---------------------------|---------------------------------------|

e:-------------------------------------------------------------------|
B:-17b19~~--15b16-15-12-14-12----------------------------------------|
G:-----------------------------14b16r14p12----14-12~---------12h14~--|
D:-----------------------------------------14----------14-14---------|
A:-------------------------------------------------------------------|
E:-------------------------------------------------------------------|

e:-(16)r15p12--------------------------------------------------------|
B:------------15-15b17-15b17-15b17~--15p12----12-------12-------12---|
G:-----------------------------------------14----14b16----14b16------|
D:-------------------------------------------------------------------|
A:-------------------------------------------------------------------|
E:-------------------------------------------------------------------|

e:-------------------------------------------------------------------|
B:-------12-------12-------------------------------------------------|
G:-14b16----14b16----14p12----14~\-------9--11b13r11-----9~----------|
D:-------------------------14-------9h11--------------x--------11p9--|
A:-------------------------------------------------------------------|
E:-------------------------------------------------------------------|

e:-------------------------------------------------------------------|
B:-------------------------------------------------------------------|
G:-------------------------------------------------------------------|
D:------------6.--9~--[11]-[9]---------------------------------------|
A:-11.----7h9------------------[11]-[9]------------------------------|
E:--------------------------------------[12]~---9h12-12h14p12s9------|

Repeat until fade:

e:-------------------------------------------------------------------|
B:-------------------------------------------------------------------|
G:----------------(7)-8--9~------------------------------------------|
D:-------6--7--9-----------------------------------------------------|
A:-------------------------------------------------------------------|
E:---0~--------------------------------------------------------------|



The Fountain Of Lamneth:



Part I (In the valley):


[Riff 1] - Freely

    D                   A/C#                Bm
e:----5-----5---------|-------5-------5--|---------7-------7-----|
B:------------8-7-----|---5------7-------|----7-------7----------|
G:--7----7--------7---|-6---6------6----6|--4----7------7----4---|
D:------------------7-|------------------|-----------------------|
A:--------------------|------------------|-----------------------|
E:--------------------|------------------|-----------------------|

   D                     G                 G/F#
e:---------7-------7---|-------3----3-----------------3-------|
B:----7-------7--------|---------0----3----------3------3-----|
G:------7-------7------|-----0----------0------0----------0---|
D:-7-------------------|------------------0--------0--------0-|
A:---------------------|--------------------------------------|
E:---------------------|-0-3-----------------2----------------|

   E                   A
e:------0-----0-----0---------------------------------------|
B:---0----------0------2--------------------5---------------|
G:--------1-------1----2------6---4--7---6------------------|
D:-2-------------------2---7--------------------------------|
A:---------------------0------------------------------------|
E:----------------------------------------------------------|

*** Since it features so prominently, here is how the first measure
        is played on the repeats:

     D
e:--------------------|
B:------7----8-7------|
G:--7~----7------7----|
D:-----------------7--|
A:--------------------|
E:--------------------|

[Riff 2] Freely
  D5 D/E D/F# G(addA)                       play this the last time
   \/ \/ \/   \/  A                          \/
e:------------3--------------------------|--------------------|
B:-3--3--3----0---2----------2-----------|---2----------------|
G:-2--2--2----2---2----------2-----------|---2----------------|
D:-0--2--0----0---2--2-2--2--2--2-2--2---|---2----------------|
A:-------x----x---0--0-0--0--0--0-0--0---|---0----------------|
E:-------2----3--------------------------|--------------------|

[Riff 3]               Play 2x
B(addE) A(addB)        D5    C5
e:---------------5-|----------------------------------------|
B:-0--0---0--0---7-|----------------------------------------|
G:-8--6---8--6---7-|o--5-5---5-5-5-5-5-7-7-----------------o|
D:-9--7---9--7---7-|o--5-5---5-5-5-5-5-7-7-----------------o|
A:-0--0---0--0---5-|---3-3-0-3-3-3-3-3-5-5------------------|
E:-----------------|----------------------------------------|

[Riff 4] Freely arpeggate
   Em7      G  G/F#
e:--0-------3---3-------------------------------------------|
B:--3-------3---3-------------------------------------------|
G:--0-------0---0-------------------------------------------|
D:--2-------0---0-------------------------------------------|
A:--2-------2---x-------------------------------------------|
E:--0-------3---2-------------------------------------------|

Progression:

[Riff 1] x1

[Riff 1] x2 w/ lyrics:

I am born; I am me.
I am new; I am free.
Look at me; I am young.
Sight unseen; Life unsung.

[Riff 2] x5

[Riff 3] x2

[Riff 3] x2 w/ lyrics:

My eyes have just been opened and they're opened very wide.
Images around me don't identify inside.

Just one blur I recognize, the one that soothes and feeds.
My way of life is easy, and as simple are my needs. [strike A5]

[Riff 4] x2

[Riff 4] x2 w/ lyrics:

Yet my eyes are drawn towards the mountain in the east.
Fascinates and capitaves; gives my heart no peace.

      D                                C
The mountain holds the sunrise in the prison of the night,

      D                                     C         Fmaj7
till bursting forth from rocky chains, the valley... floods...

       G6
with light.

[Riff 3] x2

[Riff 3] x2 w/ lyrics:

Living one long sunrise, for to me all things are new.
I've never watched the sky grow pale, or strolled through fields of dew.

I do not know of dust to dust, I live from breath to breath.
I live to climb that mountain to the Fountain of Lamneth. [strike A5]

[Riff 4] x2

[Riff 4] x2 w/ lyrics:

Yet my eyes are drawn towards the mountain in the east.
Fascinates and capitaves; gives my heart no peace.

      D                                C
The mountain holds the sunrise in the prison of the night,

      D                                     C         Fmaj7
till bursting forth from rocky chains, the valley... floods...

       G6
with light.

[Riff 3] x1 [last half an extra two times]


Part II (Didacts and narpets):


e:----------------|--------------|--------------|--------------------|
B:----------------|--------------|--------------|--------------------|
G:----------------|--9------7----|--------------|--9----9--7---------|
D:----------------|--9------7----|--5------3----|--9----9--7---------|
A:----------------|--7------5----|--5------3----|--7----7--5---------|
E:----------------|--------------|--3------1----|--------------------|
                     Stay!  Go!     Work!  No!     Think!  Live!

                                                        Berzerk Neil
e:----------------|-----------------|-----------------|--------------|
B:----------------|-----------------|-----------------|--------------|
G:----------------|--9------7-------|-----------------|--------------|
D:--5------3------|--9------7-------|--5------3-------|--------------|
A:--5------3------|--7------5-------|--5------3-------|--------------|
E:--3------1------|-----------------|--3------1-------|--------------|
    Earn!  Give!     Wait!  Fight!     Left!  Right!

e:---------------------------|---------------------------------------|
B:--------6-----8-----10--6--|---------------------------------------|
G:--9--7--5--5--7--7--9---5--|---------------------------------------|
D:--9--7--3--5--5--7--7---3--|---------------------------------------|
A:--7--5-----3-----5---------|---------------------------------------|
E:---------------------------|---------------------------------------|
                                LISTEN!


Part III (No One At The Bridge):


[Riff 1]
   Em(addF#)
e:----------------------------------------------------------|
B:----------------------------------------------------------|
G:-------0-----------0-----------0-----------0--------------|
D:-----4---4-------4---4-------4---4-------4---4------------|
A:---2-------2---2-------2---2-------2---2-------2----------|
E:-0-----------0-----------0-----------0-----------0--------|

[Riff 2]
   Gm(addA)/Bb
e:----------------------------------------------------------|
B:----------------------------------------------------------|
G:-------0-----------0-----------0-----------0--------------|
D:-----7---7-------7---7-------7---7-------7---7------------|
A:---5-------5---5-------5---5-------5---5-------5----------|
E:-6-----------6-----------6-----------6-----------6--------|

[Riff 3]
     C          G                     G/F#
e:----------------------------------------------------------|
B:----------------------------------------------------------|
G:---------0----------0-----------0----------0--------------|
D:------2----------0-----------0----------0-----------------|
A:---3----------2-------------------------------------------|
E:-------------------------3----------2---------------------|

[Riff 4a] - Freely
    A              C(addD)
e:--0--------------3--3---3--3------------------------------|
B:--2--2-2-0~------3--3---3--3------------------------------|
G:--2--------------0--0---0--0------------------------------|
D:--2--------------2--2---2--2------------------------------|
A:--0--------------3--3---3--3------------------------------|
E:----------------------------------------------------------|

[Riff 4b] - wallop the F
                   F
e:--0---0-0--0-----1----------------------------------------|
B:--2---2-2--2-----1----------------------------------------|
G:--2---2-2--2-----2----------------------------------------|
D:--2---2-2--2-----3----------------------------------------|
A:--0---0-0--0-----3----------------------------------------|
E:-----------------1----------------------------------------|

Progression:

Fade in: [Riff 2] x1

[Riff 1] x1
[Riff 2] x1

[First half of Riff 1] x1

[Riff 3] x1

[Riff 1 + 2] x2 w/ lyrics:

Crying back to consciousness,
the coldness grips my skin.

The sky is pitching violently,
drawn by shrieking winds.

[Riff 4a] x3 w/ lyrics:

Seaspray blurs my vision.
Waves roll by so fast.
Save my ship of freedom.

[Riff 4b] x1 w/ lyrics:

I'm lashed, helpless, to the mast.

[Riff 1 + 2] x2

[First half of Riff 1] x1

[Riff 3] x1

[Riff 1 + 2] x2 w/ lyrics:

Remembering when first I held
the wheel in my own hands.

I took the helm so eagerly
and sailed for distant lands.

[Riff 4a] x3 w/ lyrics:

But now the sea's too heavy
And I just don't understand.
why must my crew desert me -

[Riff 4b] x1 w/ lyrics:

- when I need a guiding hand?

[Riff 1] x1

(These fretboxes apply to ALL of the remaining G, D, and Em7 chords here!)

    [355433] [x57775]                            [x79787]
         G    D                             G  D    Em7  D      E   E
        Call out for direction and there's no one there to steer.

 G    D                              G  D   Em7  D      E   E
Shout out for salvation but there's no one there to hear.

 G   D   Em7 D  E    E         G  D Em7 D     E   E
Cry out supplication for the maelstrom is near.

  G     D                     G  D   Em7   D
Scream out desperation but -- no one dares to -

[Riff 1 + 2] x2 w/ lyrics:

hear.

[First half of Riff 1] x1

[Riff 3] x1

[Guitar Solo]

e:----------------------------------------------------------|
B:---------------------------------8------8-7---------------|
G:------------------------7--7~--7---7~-7-----7--7h9~~------|
D:-------------5--7--7s9------------------------------------|
A:10s5s7~-7-7-----------------------------------------------|
E:----------------------------------------------------------|

e:--7-9-10-10--10~-12--12~--10p9-9p7-|--------9-10--12------|
B:-----------------------------------|-----10~----------10~-|
G:-----------------------------------|----------------------|
D:-----------------------------------|----------------------|
A:-----------------------------------|----------------------|
E:-----------------------------------|----------------------|

e:12b14-12-10--12b14--12--10--------9-10-12--------------------|
B:------------------------------10~---------10~-8-7-5----------|
G:----------------------------------------------------7-6------|
D:--------------------------------------------------------7----|
A:-------------------------------------------------------------|
E:-------------------------------------------------------------|

e:------9-10-12------14b15--14-12---14b15--14-12------9-10-12----|
B:---10~---------10~-------------------------------10~--------10~|
G:---------------------------------------------------------------|
D:---------------------------------------------------------------|
A:---------------------------------------------------------------|
E:---------------------------------------------------------------|

e:----------------------------------------------------------|
B:---6~--8--6--8--6~s5~~\-----------------------------------|
G:----------------------------------------------------------|
D:----------------------------------------------------------|
A:----------------------------------------------------------|
E:----------------------------------------------------------|

   Em(addF#)
e:------------------------------------------------------------0~-|
B:--------------------------------------------------------0~-----|
G:-------0-----------0-----------0-----------0-----------0~------|
D:-----4---4-------4---4-------4---4-------4---4--------4~-------|
A:---2-------2---2-------2---2-------2---2-------2-----2~--------|
E:-0-----------0-----------0-----------0--------------0~---------|
                                          slower


Part IV (Panacea):


[Riff 1]
    Am      C        G          Am   Am      C        G
e:---------------------------0-----|------------------3---------|
B:--1-------1--------0-----------1-|-1-------1--------3---------|
G:--------------0----------0-------|-2-----------0----0---------|
D:----2-------2---------0----------|-2-2-------2------0---------|
A:--0---0-2-3--------------------0-|-0---0-2-3--------2---------|
E:----------------2--3-------------|---------------2--3---------|

[Riff 2a]              [Riff 2b]
    D(add G&E)         C9
e:--5---------------|--3------------------------------|
B:----5---------5---|----3---------3------------------|
G:------0-----0---0-|------0-----0---0----------------|
D:--------4~--------|--------2~-----------------------|
A:--5---------------|--3------------------------------|
E:------------------|---------------------------------|

[Riff 2c]                 [Riff 2d]
    G                      G
e:--3-------------------|--3-----------------------------|
B:----3---------3-------|----3---------3-----------------|
G:------0-----0---0-----|------0-----0---0---------------|
D:--------0~------------|--------0~----------------------|
A:----------------------|--2-----------------------------|
E:--3-------------------|--------------------------------|

[Riff 3a] - Freely
   A            C      Fmaj7
e:----------------------0---------3-----------------|
B:-2----2-3-5---1--------1-----1----3-------3~------|
G:-2-------------0---0----2--2--------0-------------|
D:-2--2-----------2-2---3--3------------0~--0~------|
A:-0------------3--3--------------------------------|
E:--------------------------------------------------|

[Riff 3b] - Freely
   A            C        Fmaj7      E      Esus4
e:------------------------0---------0--0-0--0-0--0-|
B:-2----2-3-5---1----------1---1----0--0-0--0-0--0-|
G:-2-------------0---0------2-2-----1--1-1--2-2--1-|
D:-2--2-----------2-2--------3------2--2-2--2-2--2-|
A:-0------------3--3------3---------2--2-2--2-2--2-|
E:----------------------------------0--0-0--0-0--0-|

[Riff 4] - Strum
    A(add B)
e:--0---0-----0---0----|---0---0-0---0---0-0------------|
B:--0-----0---0-----0--|---1---1-1---1---1-1------------|
G:--6---------6--------|---0---------0------------------|
D:--7---------7--------|---2---------2------------------|
A:--7---------7--------|---3---------3------------------|
E:--5---------5--------|--------------------------------|

During [Riff 4] right after Geddy sings "Panacea..." it sounds like there
are some harmonics:

e:-------<5>-------|
B:--<5>------------|
G:-----------------|
D:-----------------|
A:-----------------|
E:-----------------|

[Riff 5] - Strum
  Fmaj7/C    G                  D         E
e:-0----0----3----------3----3--2---------0-------------|
B:-1---1-1---3--3---3---3---3---3--3------0-------------|
G:-2--2---2--0---0-0----0--0----2----2----1-------------|
D:-3---------0----0-----0-------0------0--2-------------|
A:-3---------2----------2-----------------2-------------|
E:-----------3----------3-----------------0-------------|

[Riff 6]
    G         A          N.C.    D
e:--3-----3--5-----5----7-8-7----5----------------------|
B:----3--------5-----------------7----------------------|
G:------4--------6---------------7----------------------|
D:-------------------------------7----------------------|
A:-------------------------------5----------------------|
E:--3--------5------------------------------------------|

Progression:

[Riff 1] x1

[Riff 2a] x2

[Riff 2a] x2 w/ lyrics:

The whitness of confusion is

[Riff 2b] x2 /w lyrics:

        un - folding from my mind.

[Riff 2c] x1
[Riff 2d] x1

I stare around in wonder.

[Riff 6] x1

        Have I left my life behind.

[Riff 3a] x1 w/ lyrics:

I catch the scent of ambergris and turn my head surprised.

[Riff 3b] x1 w/ lyrics:

My gaze is caught and held and I am helpless mesmerized.

[Riff 4] x2 w/ lyrics:

Panacea, liquid  grace.
Oh, let  me touch your fragile face.

[Riff 5] x1 w/ lyrics:

Enchantment falls around me and I know I cannot leave.

[Riff 1] x1

[Riff 2a] x2

[Riff 2a] x2 w/ lyrics:

Here's a meaning for my life,

[Riff 2b] x2 w/ lyrics:

        a shelter from the storm.

[Riff 2c] x2 w/ lyrics:

Pacify my troubles with her

[Riff 6] x1

        body, soft and warm.

[Riff 2a] x2 w/ lyrics:

Naked in our unity,

[Riff 2b] x2 /w lyrics:

        a smile for ev'ry tear.

[Riff 2c] x2 w/ lyrics:

Gentle hands that promise me,

[Riff 6] x1

        comfort through the years.

[Riff 3b] x1 w/ lyrics:

Yet I know I must be gone before the light of dawn.

[Riff 4] x2 w/ lyrics:

Panacea, passion pure.
I can't resist your gentle lure.

With lyrics below:

   Am                G                Am       E7        Am
e:-------------------------3-----------------------0-----5~--|
B:-1-----1-------1---3-------3--------1-----1--0-----3---5~--|
G:-----2---2---2---------0-----0---0------2--------------5~--|
D:---2-------2---------0---------0------2--------2-------7~--|
A:-0----------------------------------0----------------------|
E:-------------------3-------------------------0-------------|

    Am              G                  Am       E7    Am
My heart will lie beside you, and my wandering body grieves.


Part V (Bacchus Plateau):


           G                    A                   A/D                   D
      3 2 0 0 3 3          x 0 2 2 2 0         x x 0 9 10 9        x x 0 11 
10 10

          G/D                 Dopen              Dadd11/F#               E5
      x x 0 7 8 7          x x 0 2 3 2          2 0 0 0 3 3          0 2 2 4 
0 0

Gtr I (E A D G B E) - 'Main Guitar'
Gtr II (E A D G B E) - 'Lead Guitar'

Fade In
  Q=114
  G    A           G    A
4/4
  Gtr I
  Q  E E +Q   Q    Q  E E +Q   Q
|-3--------------|-3--------------|
|-3----2-(2)-----|-3----2-(2)-----|
|-0----2-(2)-----|-0----2-(2)-----|
|-0----2-(2)-----|-0----2-(2)-----|
|-2----0-(0)-----|-2----0-(0)-----|
|-3--------------|-3--------------|


  A/D    D               A/D    D      A/D   G/D
   Q   E   E   +Q   Q     Q   E   E  E  E  E E
|-(9)----(10)-(10)-----|-(9)----(10)---(9)------|
|-10------10--(10)-----|-10------10----10----8\-|
|--9------11--(11)-----|--9------11-----9----7\-|
|--0-------0---(0)-----|--0-------0-----0----0--|
|----------------------|------------------------|
|----------------------|------------------------|


  Q  E E +Q   Q    Q  E E +Q   Q
|-3--------------|-3--------------|
|-3----2-(2)-----|-3----2-(2)-----|
|-0----2-(2)-----|-0----2-(2)-----|
|-0----2-(2)-----|-0----2-(2)-----|
|-2----0-(0)-----|-2----0-(0)-----|
|-3--------------|-3--------------|


   Q   E   E   +Q   Q     Q   E   E  E  E  E E
|-(9)----(10)-(10)-----|-(9)----(10)---(9)-------|
|-10------10--(10)-----|-10------10----10----8\--|
|--9------11--(11)-----|--9------11-----9----7\--|
|--0-------0---(0)-----|--0-------0-----0----0---|
|----------------------|-------------------------|
|----------------------|-------------------------|


   Verse I
    G    A           G    A
    Q  E E +Q   Q    Q  E E +Q   Q
||--3--------------|-3--------------|
||o-3----2-(2)-----|-3----2-(2)-----|
||--0----2-(2)-----|-0----2-(2)-----|
||--0----2-(2)-----|-0----2-(2)-----|
||o-2----0-(0)-----|-2----0-(0)-----|
||--3--------------|-3--------------|


  A/D    D               A/D    D      A/D   G/D
   Q   E   E   +Q   Q     Q   E   E  E  E  E E   3x
|-(9)----(10)-(10)-----|-(9)----(10)---(9)-------||
|-10------10--(10)-----|-10------10----10----8\-o||
|--9------11--(11)-----|--9------11-----9----7\--||
|--0-------0---(0)-----|--0-------0-----0----0---||
|----------------------|------------------------o||
|----------------------|-------------------------||


                          Chorus
  Dopen                    Dopen G/D  A     A   Dopen
  >
  W          +W            Q  Q  Q  E E   E E E E Q  E E
|-2--------|-(2)--------||-2-----7------|-------2-2-------|
|-3--------|-(3)--------||-3-----8----2-|---2---3-3-------|
|-2--------|-(2)--------||-2-----7----2-|---2---2-2-------|
|-0--------|-(0)--------||-0-----0----2-|---2---0-0-------|
|----------|------------||------------0-|---0-------------|
|----------|------------||--------------|------------0-2--|


  G       Dadd11/F# E5     DopeA        Dopen G/D  A     A   Dopen
  E E E E E E E E   Q.   E  E   E. E.   Q  Q  Q  E E   E E E E Q  E E
|-----------------|--------(2)--------|-2-----7------|-------2-2------|
|-----------------|---------3--(2)----|-3-----8----2-|---2---3-3------|
|-------0-------0-|---------2---2-----|-2-----7----2-|---2---2-2------|
|-----0-------0---|-2-------0---2-----|-0-----0----2-|---2---0-0------|
|---2-------0-----|-2-----------0-----|------------0-|---0------------|
|-3-------2-------|-0-----------------|--------------|------------0-2-|


  G       Dadd11/F# E5         Dopen A    G       G     Dopen
  E E E E E E E E   W          Q  Q  Q  E  E    E  E  E E Q  E E
|-----------------|-0--------|-2-----------3--|----3----2-2-------|
|-----------------|-0--------|-3-----2-----3--|----3----3-3-------|
|-------0-------0-|-4--------|-2-----2-----0--|----0----2-2-------|
|-----0-------0---|-2--------|-0-----2-----0--|----0----0-0-------|
|---2-------0-----|-2--------|-------0----(2)-|---(2)-------------|
|-3-------2-------|-0--------|------------(3)-|---(3)--------0-2--|


  G       Dadd11/F# E5     DopeA        Dopen A    G/D   G/D Dopen
  E E E E E E E E   Q.   E  E   E. E.   Q  Q  Q  E E   E E E E Q  E E
|-----------------|--------(2)--------|-2----------7-|---7---2-2------|
|-----------------|---------3--(2)----|-3-----2----8-|---8---3-3------|
|-------0-------0-|---------2---2-----|-2-----2----7-|---7---2-2------|
|-----0-------0---|-2-------0---2-----|-0-----2----0-|---0---0-0------|
|---2-------0-----|-2-----------0-----|-------0------|----------------|
|-3-------2-------|-0-----------------|--------------|------------0-2-|


  G       Dadd11/F# E5     G    DopeDopen
                                    >
  E E E E E E E E   Q.   E Q  E E   W          +W
|-----------------|--------3----2-|-2--------|-(2)----|
|-----------------|--------3----3-|-3--------|-(3)----|
|-------0-------0-|--------0----2-|-2--------|-(2)----|
|-----0-------0---|-2------0----0-|-0--------|-(0)----|
|---2-------0-----|-2------2------|----------|--------|
|-3-------2-------|-0------3------|----------|--------|


   Verse II
    G    A           G    A
    Q  E E +Q   Q    Q  E E +Q   Q
||--3--------------|-3--------------|
||o-3----2-(2)-----|-3----2-(2)-----|
||--0----2-(2)-----|-0----2-(2)-----|
||--0----2-(2)-----|-0----2-(2)-----|
||o-2----0-(0)-----|-2----0-(0)-----|
||--3--------------|-3--------------|


  A/D    D               A/D    D      A/D   G/D
   Q   E   E   +Q   Q     Q   E   E  E  E  E E   3x
|-(9)----(10)-(10)-----|-(9)----(10)---(9)-------||
|-10------10--(10)-----|-10------10----10----8\-o||
|--9------11--(11)-----|--9------11-----9----7\--||
|--0-------0---(0)-----|--0-------0-----0----0---||
|----------------------|------------------------o||
|----------------------|-------------------------||


                          Chorus
  Dopen                    Dopen G/D  A     A   Dopen
  >
  W          +W            Q  Q  Q  E E   E E E E Q  E E
|-2--------|-(2)--------||-2-----7------|-------2-2-------|
|-3--------|-(3)--------||-3-----8----2-|---2---3-3-------|
|-2--------|-(2)--------||-2-----7----2-|---2---2-2-------|
|-0--------|-(0)--------||-0-----0----2-|---2---0-0-------|
|----------|------------||------------0-|---0-------------|
|----------|------------||--------------|------------0-2--|


  G/D     Dadd11/F# E5     DopeA        Dopen G/D  A     A   Dopen
  E E E E E E E E   Q.   E  E   E. E.   Q  Q  Q  E E   E E E E Q  E E
|-----------------|--------(2)--------|-2-----7------|-------2-2------|
|-----------------|---------3--(2)----|-3-----8----2-|---2---3-3------|
|-------0-------0-|---------2---2-----|-2-----7----2-|---2---2-2------|
|-----0-------0---|-2-------0---2-----|-0-----0----2-|---2---0-0------|
|---2-------0-----|-2-----------0-----|------------0-|---0------------|
|-3-------2-------|-0-----------------|--------------|------------0-2-|


  G       Dadd11/F# E5            Dopen A    G/D   G/D Dopen
  E E E E E E E E   H..       E   Q  Q  Q  E E   E E E E Q  E E
|-----------------|-0-----------|-2----------7-|---7---2-2-------|
|-----------------|-0-----------|-3-----2----8-|---8---3-3-------|
|-------0-------0-|-4-----------|-2-----2----7-|---7---2-2-------|
|-----0-------0---|-2-----------|-0-----2----0-|---0---0-0-------|
|---2-------0-----|-2-----------|-------0------|-----------------|
|-3-------2-------|-0-----------|--------------|------------0-2--|


  G       Dadd11/F# E5     DopeA        Dopen A    G       G     Dopen
  E E E E E E E E   Q.   E  E   E. E.   Q  Q  Q  E  E    E  E  E E Q  E E
|-----------------|--------(2)--------|-2-----------3--|----3----2-2------|
|-----------------|---------3--(2)----|-3-----2-----3--|----3----3-3------|
|-------0-------0-|---------2---2-----|-2-----2-----0--|----0----2-2------|
|-----0-------0---|-2-------0---2-----|-0-----2-----0--|----0----0-0------|
|---2-------0-----|-2-----------0-----|-------0----(2)-|---(2)------------|
|-3-------2-------|-0-----------------|------------(3)-|---(3)--------0-2-|


  G       Dadd11/F# E5     G    DopeDopen
  E E E E E E E E   Q.   E Q  E E   W          +W
|-----------------|--------3----2-|-2--------|-(2)----|
|-----------------|--------3----3-|-3--------|-(3)----|
|-------0-------0-|--------0----2-|-2--------|-(2)----|
|-----0-------0---|-2------0----0-|-0--------|-(0)----|
|---2-------0-----|-2------2------|----------|--------|
|-3-------2-------|-0------3------|----------|--------|


Outro Solo
  G                     A                    G                     A
  Gtr I
   Q                  E  E        +Q   Q      Q                  E  E       
+Q   Q
|--3---------------------------------------|--3--------------------------------------|
|--3---------------------2--------(2)------|--3---------------------2-------(2)------|
|--0---------------------2--------(2)------|--0---------------------2-------(2)------|
|--0---------------------2--------(2)------|--0---------------------2-------(2)------|
|--2---------------------0--------(0)------|--2---------------------0-------(0)------|
|--3---------------------------------------|--3--------------------------------------|
|
| Gtr II
|                                  ~~~~                                      
~~~
|  |--3--|  |--3---|     |--3--|              |--3--|  |--3---|     |--3--|
|  S  S  S  S  S  +S  E  S  S  S  +Q.    E    S  S  S  S  S  +S  E  S  S  S  
Q.    E
|-12-14-12-14-12-(12)---12-14-15-(15)------|-12-14-12-14-12-(12)---15-14-12----------|
|------------------------------------------|--------------------------------15-------|
|------------------------------------------|-----------------------------------------|
|------------------------------------------|-----------------------------------------|
|------------------------------------------|-----------------------------------------|
|------------------------------------------|-----------------------------------------|


  A/D              D                    A/D            D             A/D   
G/D
   Q             E   E   +Q     Q        Q         E     E       E    E  E E
|-(9)--------------(10)-(10)----------|-(9)------------(10)----------(9)------|
|-10----------------10--(10)----------|-10--------------10-----------10----8\-|
|--9----------------11--(11)----------|--9--------------11------------9----7\-|
|--0-----------------0---(0)----------|--0---------------0------------0----0--|
|-------------------------------------|---------------------------------------|
|-------------------------------------|---------------------------------------|
|
|                         ~~~~                                   ~~~~~
|  S   E  E.         E   +Q    +S  E.    E    S  E   S   E      +Q       E E
|-10--12-12pb14rp===10--(10)--(10)----|-12b14---12------12b14==(12)r-------7--|
|-------------------------------------|---------------------------------------|
|-------------------------------------|---------------------------------------|
|-------------------------------------|---------------------------------------|
|-------------------------------------|---------------------------------------|
|-------------------------------------|---------------------------------------|


  G                A                          G            A
  Q        E        E      +Q           Q     Q        E   E   +Q          Q
|-3-----------------------------------------|-3------------------------------------|
|-3-----------------2------(2)--------------|-3------------2---(2)-----------------|
|-0-----------------2------(2)--------------|-0------------2---(2)-----------------|
|-0-----------------2------(2)--------------|-0------------2---(2)-----------------|
|-2-----------------0------(0)--------------|-2------------0---(0)-----------------|
|-3-----------------------------------------|-3------------------------------------|
|
|                               ~~~~~~~~
|          |--3--|  |-3--|                                           |-3-|
| E  S  S  S  S  S  S  S S  S. +S  +E..   E   S S  S S S S S S  S  S S S S S 
S S S
|-9-10-10-10-10-10-10-10p9--7--(7)-(7)------|--------------------------------------|
|-------------------------------------------|-7-8-10-8-7-7---7---------------------|
|-------------------------------------------|--------------9----9----7h9p7-6---7-9-|
|-------------------------------------------|--------------------------------7-----|
|-------------------------------------------|--------------------------------------|
|-------------------------------------------|--------------------------------------|


  A/D    D                   A/D              D                A/D     G/D
   Q   E   E   +Q       Q     Q           E     E        E      E    E E
|-(9)----(10)-(10)---------|-(9)--------------(10)-------------(9)--------------|
|-10------10--(10)---------|-10----------------10--------------10------8\-------|
|--9------11--(11)---------|--9----------------11---------------9------7\-------|
|--0-------0---(0)---------|--0-----------------0---------------0------0--------|
|--------------------------|----------------------------------------------------|
|--------------------------|----------------------------------------------------|
|
|                             |-3--|               |-3-|
|  E Q     Q       +E   Q     S  S S S S.   E      S S S   S S     Q      S.
|--------------------------|----------------------------------------------------|
|--------------------------|----------------------------------------------------|
|--7p6h====7-------(7)\----|--7--7---6------------------------------------------|
|--------------------------|-------7---7----5------4h5p4-----4------------------|
|--------------------------|-------------------------------5-------5------------|
|--------------------------|----------------------------------------------------|


  G                 A                            G             A
  Q           E     E    +Q        Q             Q       E     E     +Q      
         Q
|-3--------------------------------------------|-3---------------------------------------------|
|-3-----------------2----(2)-------------------|-3-------------2-----(2)-----------------------|
|-0-----------------2----(2)-------------------|-0-------------2-----(2)-----------------------|
|-0-----------------2----(2)-------------------|-0-------------2-----(2)-----------------------|
|-2-----------------0----(0)-------------------|-2-------------0-----(0)-----------------------|
|-3--------------------------------------------|-3---------------------------------------------|
|
| |-3-|   |--3--|                  |-3-| |-3-|                            
|-3--|
| S S S S S S   S S S S.     S S S.S S S S S S   S. S  E    S. S  S.      S 
S  S S.  S.  S.  S
|----------------------------------------------|---------------9-10------10p9----9--10--12--12-|
|----------------------------------------------|-7--8S10---12-----------------10---------------|
|----------------------------4-6-7S6-4-6-4S6-7-|-----------------------------------------------|
|-------4-5-4-----4-5-7------------------------|-----------------------------------------------|
|-4-5-7---------7------------------------------|-----------------------------------------------|
|----------------------------------------------|-----------------------------------------------|


  A/D                  D                    A/D              D            
A/D     G/D
   Q            E        E        +Q   Q     Q           E     E      E    E 
   E  E
|-(9)------------------(10)------(10)-----|-(9)--------------(10)---------(9)-----------|
|-10--------------------10-------(10)-----|-10----------------10----------10------8\----|
|--9--------------------11-------(11)-----|--9----------------11-----------9------7\----|
|--0---------------------0--------(0)-----|--0-----------------0-----------0------0-----|
|-----------------------------------------|---------------------------------------------|
|-----------------------------------------|---------------------------------------------|
|
|                                                                          
~~~~~~~
|                  |----3----|                                 |-3--|
|  S   S  S  S  S  S S       S S   Q   Q     S   S T  S. S S   S  S S S S  E 
  +Q
|-12--12-12-12-12-10-9------10-9--10\-----|---------------------------------------------|
|-----------------------------------------|-10--10---10--8-----7--8-7---7---------------|
|-----------------------------------------|---------------------------9----9--(9)-------|
|-----------------------------------------|---------------------------------------------|
|-----------------------------------------|---------------------------------------------|
|-----------------------------------------|---------------------------------------------|


  G               A                              G               A
   Q          E    E    +Q           Q            Q         E     E   +Q     
     Q
|--3-------------------------------------------|--3--------------------------------------------|
|--3---------------2----(2)--------------------|--3---------------2---(2)----------------------|
|--0---------------2----(2)--------------------|--0---------------2---(2)----------------------|
|--0---------------2----(2)--------------------|--0---------------2---(2)----------------------|
|--2---------------0----(0)--------------------|--2---------------0---(0)----------------------|
|--3-------------------------------------------|--3--------------------------------------------|
|
|                                                                      
|--3---|        |--3--|
|  S  S S  S  S S  S  S  S   S  S S  S  S S  S    S S  S  S S  S  S S  E   E 
  E  S  S  S  S  S
|----12------12------12--------12------12------|-12------12------12---12--14-15-15-15-15-15-15-|
|-10------10------10--------10------10------10-|------10------10-------------------------------|
|----------------------------------------------|-----------------------------------------------|
|----------------------------------------------|-----------------------------------------------|
|----------------------------------------------|-----------------------------------------------|
|----------------------------------------------|-----------------------------------------------|


  A/D                   D                      A/D           D              
A/D   G/D
   Q               E      E     +Q       Q      Q          E   E     E       
E  E E
|-(9)-------------------(10)---(10)----------|-(9)-----------(10)-----------(9)-------|
|-10---------------------10----(10)----------|-10-------------10------------10----8\--|
|--9---------------------11----(11)----------|--9-------------11-------------9----7\--|
|--0----------------------0-----(0)----------|--0--------------0-------------0----0---|
|--------------------------------------------|----------------------------------------|
|--------------------------------------------|----------------------------------------|
|
|                                ~~~~~~~~                                
~~~~
|  |--3---|
|  S   S  S  S  S  S  S   S  S   S   +Q.   S    E.    E.       E.       +E.  
    Q
|-15--15-15-14-12----12----------------------|----------------------------------------|
|-----------------15-----15-----15--(15)-----|-15b17-15b17----15pb17r==(15)-----------|
|--------------------------------------------|----------------------------------------|
|--------------------------------------------|----------------------------------------|
|--------------------------------------------|----------------------------------------|
|--------------------------------------------|----------------------------------------|


  G             A                          G           A
  Q         E    E   +Q          Q         Q       E   E   +Q        Q
|-3--------------------------------------|-3---------------------------------|
|-3--------------2---(2)-----------------|-3-----------2---(2)---------------|
|-0--------------2---(2)-----------------|-0-----------2---(2)---------------|
|-0--------------2---(2)-----------------|-0-----------2---(2)---------------|
|-2--------------0---(0)-----------------|-2-----------0---(0)---------------|
|-3--------------------------------------|-3---------------------------------|
|
| |-3-|               |-3--|
| S S S S S S S  S S  S  S S S S S S S S   S S S S S S S S  S  S S S S S S S
|----------------------------------------|-----------------------------------|
|-7h8p7---7-8---10-8--7--8-7-------------|-----------------------------------|
|-------9--------------------9---7p6h7p6-|-6-7---9---9-6-6-------------------|
|----------------------------------------|------------------7----7-5-5-4-5-4-|
|----------------------------------------|-----------------------------------|
|----------------------------------------|-----------------------------------|


  A/D       D                   A/D             D             A/D   G/D
   Q    E     E   +Q    Q        Q        E       E         E  E  E E
|-(9)-------(10)-(10)---------|-(9)-------------(10)----------(9)---------*|
|-10---------10--(10)---------|-10---------------10-----------10----8\----*|
|--9---------11--(11)---------|--9---------------11------------9----7\----*|
|--0----------0---(0)---------|--0----------------0------------0----0-----*|
|-----------------------------|-------------------------------------------*|
|-----------------------------|-------------------------------------------*|
|
|                                           |---3----|
|  S E. S S   Q       Q   S S    S  S S E   S S      S +E.     Q.
|-----------------------------|-------------------------------------------*|
|-----------------------------|-------------------------------------------*|
|-----------------------------|-------------------------------------------*|
|-----------------------------|-------------------------------------------*|
|--5s7--5-4---5\--------------|-----4---5---5-4------5-(5)\---------------*|
|---------------------------3-|--5----5-----------------------------------*|


Part IV (The Fountain):



[Riff 1]               Play 2x
 B(addE) A(addB)       D5    C5
e:---------------5-|----------------------------------------|
B:-0--0---0--0---7-|----------------------------------------|
G:-8--6---8--6---7-|o--5-5---5-5-5-5-5-7-7-----------------o|
D:-9--7---9--7---7-|o--5-5---5-5-5-5-5-7-7-----------------o|
A:-0--0---0--0---5-|---3-3-0-3-3-3-3-3-5-5------------------|
E:-----------------|----------------------------------------|

[Riff 2] Freely arpeggate
   Em7      G  G/F#
e:--0-------3---3-------------------------------------------|
B:--3-------3---3-------------------------------------------|
G:--0-------0---0-------------------------------------------|
D:--2-------0---0-------------------------------------------|
A:--2-------2---x-------------------------------------------|
E:--0-------3---2-------------------------------------------|

Progression:

[Riff 1] x2

[Riff 1] x2 w/ lyrics:

Look, the mist is rising and the sun is peeking through.
See the steps grow lighter as I reach their final few.

Hear the dancing waters, I must be drawing near.
Feel my heart is pounding with embattled hope and fear. [Strike A5]

[Riff 2] x2

[Riff 2] x2 w/ lyrics:

Now at last I fall before the Fountain of Lamneth.
I thought I would be singing, but I'm tired, out of breath.

D                                 C
Many journeys end here, but the secret's told the same.

D                              C   Fmaj7               G6
Life is just a candle, and a dream...    must give it flame.

[Riff 1] x2

[Riff 1] x2 w/ lyrics:

The key, the end, the answer, stripped of their disguise.
Still it's all confusion and tears spring to my eyes.

Though I've reached a signpost, it's really not the end.
Like Old Sol behind the mountain, I'll be coming up again. [Strike A5]

[Riff 2] x1

[Guitar Solo] in the key of G over: [Riff 2] x2 then [Riff 3] x1

(this is only an approximation; and a BAD one at that; the beginning is
  right, and the ending is right, the rest is ... )

e:----------7-7-----------------7~--7-9-10-12-10~-----------|
B:-10s5~-5-----10p8~-8h10~-8-10-----------------------------|
G:----------------------------------------------------------|
D:----------------------------------------------------------|
A:----------------------------------------------------------|
E:----------------------------------------------------------|

e:-15p14p12h15--15p14p12h15---10p9p7--5---5-----7-9--7h9p7--|
B:--------------------------------------7---7s9-------------|
G:----------------------------------------------------------|
D:----------------------------------------------------------|
A:----------------------------------------------------------|
E:----------------------------------------------------------|

e:----------------9-10-10-9----5---5---------10p9p7h9-------|
B:-7s5\---9-10-12-----------9----8---8-7-5------------------|
G:-----------------------------------------7----------------|
D:----------------------------------------------------------|
A:----------------------------------------------------------|
E:----------------------------------------------------------|

e:-10p9p7h9--10p9p7h9--8p7p5h7--5---------------------------|
B:--------------------------------8-7-5--------6--7b8r7p6---|
G:--------------------------------------7-5-----------------|
D:------------------------------------------7---------------|
A:----------------------------------------------------------|
E:----------------------------------------------------------|

e:----------------------------------------------------------|
B:---4h6p4--------------------------------------------------|
G:----------------------------------------------------------|
D:----------------------------------------------------------|
A:----------------------------------------------------------|
E:----------------------------------------------------------|

[Riff 1] x1 [last half an extra four times]

    D                   A/C#                Bm
e:----5-----5---------|-------5-------5--|---------7-------7-----|
B:------------8-7-----|---5------7-------|----7-------7----------|
G:--7----7--------7---|-6---6------6----6|--4----7------7----4---|
D:------------------7-|------------------|-----------------------|
A:--------------------|------------------|-----------------------|
E:--------------------|------------------|-----------------------|

   D                     G                   G/F#
e:---------7-------7---|---------3---3----------------3-------|
B:----7-------7--------|-----------0---3----------3-----3-----|
G:------7-------7------|-------0---------0------0---------0---|
D:-7-------------------|-------------------0--------0-------0-|
A:---------------------|--------------------------------------|
E:---------------------|-0--3----------------2----------------|

   E                   A
e:------0-----0-----0--0------------------------------------|
B:---0----------0------2--------------------5---------------|
G:--------1-------1----2------6---4--7---6------------------|
D:-2-------------------2---7--------------------------------|
A:---------------------0------------------------------------|
E:----------------------------------------------------------|

*** Same as before: First measure is repeated like this:

     D
e:--------------------|
B:------7----8-7------|
G:--7~----7------7----|
D:-----------------7--|
A:--------------------|
E:--------------------|

[Above x2 w/ lyrics]:

I'm in motion; I am still.
I am crying; I am still.
I'm together; I'm apart.
I'm forever at the start.

          D
Still, I am.

I do not own any of these tabs.


1000 views - 5 June 2013
comments
We did not receive enough feedback on this tab! Please rate:
print report bad tab
1 2 3 4 5
I want to post or [tab]
guest
You may want to rate the tab now too:
select rating
Please do not post tabs as comments. Select "correction" instead!