Oops, an error
Loading. Please wait.

Cygnus X-1 Drum Tab

by Rush
193 views 3 this week
no commentswrite comment
1 2 3 4 5
please rate
Autoscroll
+/-
esc
set tempo
stop
Contributor
WARNING: You are trying to view
                                    content from Ultimate-Guitar.com
                                    in an unauthorized application,
                                    which is prohibited.

                                    Please use an official Ultimate
                                    Guitar Tabs application for iPhone,
                                    iPad or Android to access legitimate
                                    chords, guitar, bass, and drum tabs
                                    from Ultimate-Guitar.com database.

                                    Type "ultimate guitar tabs" in Apple
                                    App Store's or Android Market's
                                    search to find the application.
NOT MY TAB. I just thought it would be good to have these here on UG. Credit goes to those below.


Rush: Cygnus X-1
From the album A Farewell to Kings (Mercury Records)
Copyright 1977 Core Music Publishing
Music by Lee, Lifeson, and Peart
Lyrics by Peart

Comments/corrections to Bryan McDonald 

Transcribed by Bryan McDonald


     e   e   e   s tts s e   q    q        e   e   e   s tts s s s s q   q
H|---C---X---X---X-----O-----r----r----|---C---X---X---X-----O---O---r---r---|
S|5:---------X-----XXX-------e----e----|6:---------X-----XXX---------e---e---|
T|4:-------------------------s----s----|4:---------------------------s---s---|
F|---X-----------------X-P---t----t----|---X-----------------X-P-X-P-t---t---|

      e   e   e   s tts s e   q    Q        e   e   e   s tts s s s s s s
H|----C---X---X---X-----O-----r----r---|----C---X---X---X-----O---O---O---|
S|11:---------X-----XXX-------e----e---|4:----------X-----XXX-------------|
T|8:--------------------------s----s---|4:--------------------------------|
F|----X-----------------X-P---t----t---|----X-----------------X-P-X-P-X-P-|

Play 4 times
       e   e   e   s tts s e        e   e   e   s tts s s s e
H||----C---X---X---X-----O-----|----X---X---X---X-----O---O-----|
S||3:----------X-----XXX-------|7:----------X-----XXX-----------|
T||4:--------------------------|8:------------------------------|
F||----X-----------------X-P---|----X-----------------X-P-X-P---|

                                                2nd time Crash here
                                                     |   |   |
      e   e   e   s tts s e       	e   e   e   s tts s s s s s e
H|----C---X---X---X-----O-----|----X---X---X---X-----O---O---O-----||
S|3:----------X-----XXX-------|4:----------X-----XXX--------------:||
T|4:--------------------------|4:---------------------------------:||
F|----X-----------------X-P---|----X-----------------X-P-X-P-X-P---||

(Slower)
     w                       w                          w
H|---C-------------------|---C----------------------|---C-----------------|
S|-----------------------|--------------------------|---------------------|
T|-----------------------|--------------------------|---------------------|
F|---X-------------------|---X----------------------|---X-----------------|

(Faster)
     s s s s s s s s s s s s s s s s     E     s+e   E     s e   e   s s
H|-----------------------------------|---C-----C-----C-------------------|
S|-----------------------------------|-----------------------------------|
T|---5-5-7---X---5-5-7---X---5-5-7-7-|---------------------5-5---7---X-X-|
F|---------X---X-------X---X---------|---X-----X-----X-------------------|

     E     s+e   e   tttts s s s s s     E     s+e   E     s+e
H|---C-----C-----C-------------------|---C-----C-----C-----C-----|
S|-----------------------------------|3:-------------------------|
T|-------------------44444-4-5-5-7-7-|4:-------------------------|
F|---X-----X-----X-------------------|---X-----X-----X-----X-----|
                                                            6           6
   e   tts tts tts s tts s tts e     E     s+e   e   s^s^s^s^s^s s^s^s^s^s^s
H|-C-------------------------------|-C-----C-----C-----r---------------------|
S|---------------------------------|-------------------e---------------------|
T|-----111-222-333-5-555-6-666-X---|-----------------2-s-2-3(3)3-5-5-5-7-7-X-|
F|-X-------------------------------|-X-----X-----X-----t---------------------|
                          6           6
     E     s+e   e   s^s^s^s^s^s s^s^s^s^s^s     E     s+e   E     s+e
H|---C-----C-----C-----r---------------------|---C-----C-----C-----C-----|
S|---------------------e---------------------|3:-------------------------|
T|-------------------4-s-4-5-5-5-6-6-7-7-X-X-|4:-------------------------|
F|---X-----X-----X-----t---------------------|---X-----X-----X-----X-----|

     e   e   s s e   s s s s     s s s s s s e   s s s s
H|---C---B---B---B---B---B---|---B---B---B---B---O---O---|
S|6:-------------X-----X--(X)|----(X)-(X)----X-----------|
T|8:-------------------------|---------------------------|
F|---X---------X-------------|---X---------X-----X-P-X-P-|

     e   e   s s e   s s e tt
H|---B---B---B---B---B---B---|---------------------------|   Sorry, I just
S|---------------X-----X---XX|---------------------------|<--couldn't do this
T|---------------------------|---------------------------|   measure =(
F|---X---------X-------------|---------------------------|   Anyone wanna try?

     q+      s s e   s s s s     s s s s s s e   e   e
H|---C-----------B---B---B---|---B---B---B---B---S---S---|
S|---------------X-----X--(X)|----(X)-(X)----X-----------|
T|---------------------------|---------------------------|
F|---X---------X-------------|---X---------X-----X---X---|
                                          6               6
     e   e   s s s   s s s s     e   s^s^s^s^s^s e   s^s^s^s^s^s
H|---C---B---B---B---B---B---|---C---------------C---------------|
S|---------------X-----X---X-|-----------------------------------|
T|---------------------------|-------X-X-X-X-X-X-----X-X-X-X-X-X-|
F|---X---------X-------------|---X---------------X---------------|
            6               6                 6               6
   e   s^s^s^s^s^s e   s^s^s^s^s^s   e   s^s^s^s^s^s e   s^s^s^s^s^s
H|-C---------------C---------------|-C---------------C---------------|-------|
S|---------------------------------|-X---------------X---------------|---%---|
T|-----X-X-X-X-X-X-----X-X---X-X---|-----X-X---X-X-------X-X---X-X---|-------|
F|-X---------------X-------X-----X-|---------X-----X---------X-----X-|-------|

     q       e   e   e   e       e   e   e   e   e
H|---C-------O---X---X---X---|---X---X---O---X---O---|
S|---X-----------X-----------|5:-------------X-------|
T|---------------------------|8:---------------------|
F|-----------X-----------X---|---X-------X-----------|

     e   e   e   e   e   s s     s s s s s s s s s s s s
H|---X---X---X---X---X---X---|---X-----------------------|
S|6:-------------X--------(X)|-----X-X-X-X-X-X-X-X-X-X-X-|
T|8:-------------------------|---------------------------|
F|---X-------X---------------|---------------------------|

     q       e   e   e   e       e   e   e   e   e
H|---C-------O---X---X---X---|---X---X---O---X---O---|
S|---------------X-----------|5:-------------X-------|
T|---------------------------|8:---------------------|
F|---X-------X-----------X---|---X-------X-----------|

     e   e   e   e   e   e       e   e   e   e   e
H|---X---X---X---X---X---X---|---X---X---O---X---O---|
S|6:-------------X-----------|5:-------------X-------|
T|8:-------------------------|8:---------------------|
F|---X-------X-----------X---|---X-------X-----------|

     e   e   e   e   e   s s     e   s s e   s s e   s s
H|---X---X---X---X---X-------|---O-------O-------O-------|
S|6:-------------X-----xxX-X-|-------X-X-----X-X-----X-X-|
T|8:-------------------------|---------------------------|
F|---X-------X---------------|---X---P---X---P---X---P---|

     q       e   e   e   e       e   e   e   e   e
H|---C-------O---X---X---X---|---X---X---O---X---O---|
S|---------------X-----------|5:-------------X-------|
T|---------------------------|8:---------------------|
F|---X-------X-----------X---|---X-------X-----------|

     e   e   e   e   e   e       e   e   e   e   e
H|---X---X---X---X---X---X---|---X---X---O---X---O---|
S|6:-------------X-----------|5:-------------X-------|
T|8:-------------------------|8:---------------------|
F|---X-------X-----------X---|---X-------X-----------|

     e   e   e   e   e   s s     e   s s e   e   s s e
H|---X---X---X---X---O-------|---O-------O---O-------O---|
S|6:-------------X------xX-X-|-------X-X---------X-X-----|
T|8:-------------------------|---------------------------|
F|---X-------X-----------P---|---X---P---X-P-X-P-----X---|

     q       e   e   e   e       e   e   e   e   e
H|-----------X---X---X---X---|---X---X---O---X---O---|
S|---F-----------X-----------|5:-------------X-------|
T|---------------------------|8:---------------------|
F|-----------X-----------X---|---X-------X-----------|

     e   e   e   e   e   e       e   e   e   e   e
H|---X---X---X---X---X---X---|---X---X---O---X---O---|
S|6:-------------X-----------|5:-------------X-------|
T|8:-------------------------|8:---------------------|
F|---X-------X-----------X---|---X-------X-----------|

     e   e   e   e   s s s s     e   s s s s s s s s s s
H|---X---X---X---X---X---X---|---O-----------------------|
S|---------------X----(X)-(X)|-------X-X-----------------|
T|---------------------------|-----------5-5-6-6-7-7-X-X-|
F|---X-------X-------X---X---|---X---P-------------------|

     q       e   e   e   e       e   e   e   e   e
H|---C-------R---R---R---R---|---R---R---R---O---R---|
S|---------------X-----------|5:-------------X-------|
T|---------------------------|8:---------------------|
F|---X-------X-----------X---|---X-------X-------P---|

     e   e   e   e   e   e       e   e   e   e   e
H|---R---R---R---R---R---R---|---R---R---R---O---R---|
S|6:-------------X-----------|5:-------------X-------|
T|8:-------------------------|8:---------------------|
F|---X-------X-----------X---|---X-------X-------P---|

     e   e   e   e   e   e       e   e   e   e   e   e
H|---R---R---R---R---R---R---|---R---O---R---R---O---R---|
S|---------------X-----------|-------X-----------X-------|
T|---------------------------|---------------------------|
F|---X-------X-----------X---|---X-------X---X-------X---|

     q       e   e   e   e       e   e   e   e   e
H|---C-------R---R---R---R---|---R---R---R---O---O---|
S|---------------X-----------|5:-------------X---X---|
T|---------------------------|8:---------------------|
F|---X-------X-----------X---|---X-------X-----------|

     e   e   e   e   e   e       e   e   e   e   e
H|---R---R---R---R---R---R---|---R---R---R---O---O---|
S|6:-------------X-----------|5:-------------X---X---|
T|8:-------------------------|8:---------------------|
F|---X-------X-----------X---|---X-------X-----------|

     e   e   e   e   e   e       e   e   e   e   e   e
H|---R---R---R---R---R---R---|---R---O---O---R---O---O---|
S|---------------X-----------|-------X---X-------X---X---|
T|---------------------------|---------------------------|
F|---X-------X-----------X---|---X-----------X-----------|

      q       e   e   e   e       e   e   e   e   e
H||---C-------R---R---R---R---|---R---O---R---O---R---||
S||:--------------X-----------|5:-----X-------X------:||
T||:--------------------------|8:--------------------:||
F||---X-------X-----------X---|---X-------X-------X---||

     q       e   e   e   e       e   e   e   e   e   e
H|---C-------R---R---R---R---|---R---O---R---O---R---O---|
S|6:-------------X-----------|-------X-------X-------X---|
T|8:-------------------------|---------------------------|
F|---X-------X-----------X---|---X-------X-------X-------|

     q       e   e   e   e       e   e   e   e   e
H|---C-------R---R---R---R---|---R---R---R---R---R---|
S|---------------X-----------|5:-------------X---X---|
T|---------------------------|8:---------------------|
F|---X-------X-----------X---|---X-------X-----------|

     e   e   e   e   e   e       e   e   e   s s s s
H|---R---R---R---R---R---R---|---R---R---R-----------|
S|---------------X-----------|5:-------------X-X-X-X-|
T|---------------------------|8:---------------------|
F|---X-------X-----------X---|---X-------X-----------|

     e   e   e   e   e   e       s s s s s s s s s s s s
H|---R---R---R---R---R---R---|---R-----------------------|
S|---------------X-----------|-----X-X---X---X---X---X---|
T|---------------------------|-----------5---5---5---5---|
F|---X-------X-----------X---|---X-----X---X---X---X---X-|

     q       e   e   e   e       e   e   s s s s s s
H|---C-------R---R---R---R---|---R---R---O-----------|
S|---X-----------X-----------|-------------X-X-X-X-X-|
T|---------------------------|-----------------------|
F|-----------X-----------X---|---X-------X-P---------|

     q       e   e   e   e       e   e   e   e   e
H|---C-------R---R---R---R---|---R---R---R---R---R---|
S|---------------X-----------|5:-X-----------X---X---|
T|---------------------------|8:---------------------|
F|---X-------X-----------X---|-----------X-----------|

                               Play 3 times
     q       e   q       e        q       e   q       e        w
H|---C-----------------------||---------------------------||-----------------|
S|---X-------X---X-------X---||:--X-------X---X-------X--:||---X-------------|
T|---------------------------||:-------------------------:||-----------------|
F|---------------------------||---------------------------||-----------------|

   Invisible to telescopic eye, infinity the star that would not die...
H|---------------------------------------------------------------------|
S|3:---------------------------5-BAR-REST------------------------------|
T|4:-------------------------------------------------------------------|
F|---------------------------------------------------------------------|

      w                                   s s s s s s s s s s s s s s s s
H||---C-------------------------------|------------------------------------||
S||4:---------------------------------|-----------------------------------:||
T||4:---------------------------------|---5-5-7---X---5-5-7---X---5-5-7-7-:||
F||---X-------------------------------|---------X---X-------X---X----------||

      E     s+e   E     s s s s s s s     E     s+e   E     s s s s s s s
H||---C-----C-----C-------------------|---C-----C-----C-------------------|
S||:----------------------------------|-----------------------------------|
T||:--------------------7-7---7---7---|---------------------7-7---7---7---|
F||---X-----X-----X---------X---X---X-|---X-----X-----X---------X---X---X-|
                             ____________________________________
                             | 1.
     E     s+e   E     s+e   |   e   s s s s s s s s s s s s s s
H|---C-----C-----C-----C-----|---C--------------------------------||
S|3:-------------------------|4:-----F-F-------------------------:||
T|4:-------------------------|4:----------x4x4--x5x5--x6x6--x7x7-:||
F|---X-----X-----X-----X-----|---X-------X-----X-----X-----X------||
 __________________________________
 | 2.
 |   h               q       E     s     w                  w
H|---C---------------r-------r-----C-|---C---------------|--r--------------|
S|-------------------e-------e-------|-------------------|--e--------------|
T|-------------------s-------s-------|-------------------|--s--------------|
F|---X---------------t-------t-----X-|---X---------------|--t--------------|

  (Faster)                                 e   e   s s e   e   e   e   e
H||---------------------------------||---------------------------------C---|
S||:----------3-BAR-REST-----------:||-----F-------------------------------|
T||:-------------------------------:||---------3---3-3-4---5---6---7-------|
F||---------------------------------||---------------------------------X---|

      e   e   q       e   e   e   e       e   e   q       e   e   e   e
H||---r-------H-------H-------H-------|---H-------H-------H-------H-------|
S||:--e-------X---------------X-------|-----------X---------------X-------|
T||:--s-------------------------------|-----------------------------------|
F||---t---X---------------X-------X---|-------X---------------X-------X---|
                                     ____________________________________
                                     | 1. 3.
     e   e   q       e   e   e   e   |   e   e   e   e   e   e   e   e
H|---H-------H-------H-------H-------|---H-------H-------H-------H---C---||
S|-----------X---------------X-------|-----------X-------X-------X------:||
T|-----------------------------------|----------------------------------:||
F|-------X---------------X-------X---|-------X-------X-------X-------X---||
 __________________________________  ____________________________________
 | 2.                                | 4.
 |   s s e   e   e   s s e   e   e   |    e   E     s E     s e   e   e
H|-------------------------------C---||-------------------------------C---||
S|---X-X----------------------------:||---F------------------------------:||
T|-------3---3---5---6-6-7---X------:||-------3-----5-5-----X-X---X------:||
F|-------------------------------X---||-------------------------------X---||
 ___________________________________
 | 5.
 |   e   e   e   e   e   e   e   e       q       Q           e   e   e
H|---H-------C-------C-------C-------|---C-------r-----------------------|
S|-----------X-------X-------X-------|---X-------e-----------X---X---X---|
T|-----------------------------------|-----------s-----------------------|
F|-------X-------X-------X-------X---|-----------t-----------------------|

(gradually slower)                     Play 3 times
     e   e   e   e   e   e   e   e        w
H|-----------------------------------||---C------------------------------||
S|---X---X---X---X---X---X---X---X---||:--------------------------------:||
T|-----------------------------------||:--------------------------------:||
F|-----------------------------------||---X------------------------------||

     q       q       q       q           q       q       q       q
H|---C-------C-------C-------C-------|---C-------C-------C-------C-------|
S|-----------------------------------|-----------------------------------|
T|-----------------------------------|-----------------------------------|
F|---X-------X-------X-------X-------|---X-------X-------X-------X-------|

      w                                   h               h
H||---C---------------|-------|-------|---C---------------C---------------||
S||:------------------|---%---|---%---|----------------------------------:||
T||:------------------|-------|-------|----------------------------------:||
F||---X---------------|-------|-------|---X---------------X---------------||
               3                 3
     e   e   s^s^s e   e   e   s^s^s e
H|---C-------r---------------------------|
S|-------F---e---------------------------|
T|-----------s-5-5-5---6---6---X-X-X-X---|
F|---X-------t---------------------------|

          6           6           6           6
     s^s^s^s^s^s s^s^s^s^s^s s^s^s^s^s^s s^s^s^s^s^s
H|---C-r---------------------------------------------|
S|-----e---------------------------------------------|
T|-----s-6-6-6-6-7-7-7-7-7-6-6-6-6-5-5-5-5-5-4-4-4-4-|
F|---X-t---------------------------------------------|

     e   ttttttttttttttttttttttttttts e
H|---C------------------------------------|
S|-------XXXXXX---------------------------|
T|-------------4444445555556666667777-7---|
F|---X------------------------------------|

     q       q       e   tttte   tttt    e   tttte   tttte   tttte   e
H|---C-------C-------C-------C-------|---C-------C-------C-------C-------|
S|-----------------------------------|---X-------X-------X-------X---X---|
T|-----------------------XXXX----XX--|-------XX------XX------XX----------|
F|---X-------X-------X-------X-----XX|---------XX------XX------XX--------|
                                   LR          LR      LR      LR
     h               h                   w
H|---C---------------C---------------|---C-------------------------------|
S|-----------------------------------|-----------------------------------|
T|-----------------------------------|-----------------------------------|
F|---X---------------X---------------|---X-------------------------------|

                     *********************************

I represented this part as best I could, for the drums and bass are not
locked in with the guitar. I separated the measures indicating that there
is no specific rythm joining them together.

     s e   e   s s e   e       s e   e   s s e   e   s s e  e      s e   e
H|-----------------------| |----------------------------------| |-----------|
S|---X-X---X---X-X-X---X-| |---X-X---X---X-X-X---X---X-X-X--X-| |--X-X---X--|
T|-----------------------| |----------------------------------| |-----------|
F|-----------------------| |----------------------------------| |-----------|

                     *********************************

q      q       q       e   s s s s e   e   e   e
H|----C-------B-------B---B---r---B---B-------B---|
S|11:---------X-------------X-e(X)--------X-------|
T|8:--------------------------s-------------------|
F|----X---------------X-------t---X---X-------X---|

     q       q       s s s s s s e   e   e   e
H|---B-------B-------B---B---r---B---B-------B---|
S|-----------X--------(X)--X-e(X)--------X-------|
T|---------------------------s-------------------|
F|---X---------------X-------t---X---X-------X---|

     Q     s q       s s s s s s e   e   e   e
H|---B-------B-------B---B---r---B---B-------B---|
S|-----------X--------(X)--X-e(X)--------X-------|
T|---------------------------s-------------------|
F|---X-----X---------X-------t---X---X-------X---|

     q       q       s s s s s s e   e   s s s s
H|---B-------B-------B---B---r---B---B-----------|
S|-----------X--------(X)--X-e(X)--------X-X-X-X-|
T|---------------------------s-------------------|
F|---X---------------X-------t---X---X-----------|

     q       q       s s s s s s e   e   e   e
H|---C-------C-------B---B---r---B---B---B---B---|
S|-----------X--------(X)--X-e(X)--------X-------|
T|---------------------------s-------------------|
F|---X---------------X-------t---X---X-------X---|

     e   e   e   e   s s s s s s e   e   e   e
H|---B---B---C-------C-----C-----C---C---C---C---|
S|-----------X--------(X-X)-(X-X)----------------|
T|-----------------------------------------------|
F|---X---------------X-----X-----X---X---X---X---|

     q       q       s s s s s s e   e   e   e
H|---C-------C-------C---r---r---B---B---B---B---|
S|-----------X--------(X)e-X-e(X)--------X-------|
T|-----------------------s---s-------------------|
F|---X---------------X---t---t---X---X-------X---|

     q       q       s s s s s s e   e   s s s s
H|---C-------C-------C---r---r---B---------------|
S|-----------X--------(X)e-X-e(X)----X-X---------|
T|-----------------------s---s-----------5-5-5-5-|
F|---X---------------X---t---t---X---X-----------|

     q       q       s s s s s s e   e   e   e
H|---C-------C-------C---r---r---B---B---B---B---|
S|-----------X--------(X)e-X-e(X)--------X-------|
T|-----------------------s---s-------------------|
F|---X---------------X---t---t---X---X-------X---|

     e   s s s s s s s s s s s s s s s s s s s s
H|---C---------------------O---------------------|
S|-------X-X--(X)-(X)X-X-X---X-X-X-X-X-X---X-X-X-|
T|-----------4---5-----------------------4-------|
F|---X---------------------X---------------------|

      q       q       s s s s s s e   e   e   e
H||---C-------C-------C---r---r---B---B---B---B---||
S||:----------X--------(X)e-X-e(X)--------X------:||
T||:----------------------s---s------------------:||
F||---X---------------X---t---t---X---X-------X---||

      e   e   s s e   s s s s     s s s s e   e   e   s s
H||---C---R---R---R---R---R---|---R---R---R---R---R---R---|
S||6:-------------X-----X--(X)|----(X)--X-----X--------(X)|
T||8:-------------------------|---------------------------|
F||---X---------X-------------|---X---------X-----X---X---|
                             _____________________________
                             | 1.
     q       s s e   s s s s |   e   e   s s e   s s s s
H|---R-------R---R-------R---|---C---C-------C---C--------||
S|6:-------------X----(X)-(X)|-----------X-X-------X-X-X-:||
T|8:-------------------------|---------------------------:||
F|---X---------X-------------|---X---X-------X---X--------||
 ___________________________  ____________________________
 | 2.                         | 3.
 |   s s+e   e   s s+e   e    |   tttts s s s e   e   e
H|-----C-----C-----C-----C---||---------------C---C---C---|
S|---X-----------X----------:||---XXXXX-X-X-X-------------|
T|--------------------------:||---------------------------|
F|-----X-----X-----X-----X---||---------------X---X---X---|
 __________________________  ____________________________
 | 4.                        | 5.
 |   q       e   q       e   |   s s s s s s s s s s s s
H|---C-------C---C-------C---|---C-----------------------|
S|---------------------------|-----X-X-X-X-X-X-X-X-X-X-X-|
T|---------------------------|---------------------------|
F|---X-------X---X-------X---|---X-----------------------|

      s s s s s s s s s s s s     s s s s s s e   s s s s
H||---C---B---B---B---B---B---|---B---B---B---B---B---B---|
S||:---(X)--X---X--(X)--X---X-|----(X)--X---X--(X)--X---X-|
T||:--------------------------|---------------------------|
F||---X---X-------X---X-------|---X---X-------X---X-------|
                             ____________________________
                             | 1.
     s s s s s s s s s s s s |   s s s s s s s s s s s s
H|---B---B---B---B---B---B---|---O---O---O---O---O---O----||
S|----(X)--X---X--(X)--X---X-|-----X---X---X---X---X---X-:||
T|---------------------------|---------------------------:||
F|---X---X-------X---X-------|---X-P-X-P-X-P-X-P-X-P-X-P--||
 ________________________________  ____________________________
 | 2.      6                       | 3.  3     3     3     3     3     3
 |   s^s^s^s^s^s s s s s s s s s   |   s^s^s s^s^s s^s^s s^s^s s^s^s s^s^s
H|--------------------------------||---------------------------------------|
S|---X-X-X-X-X-X-X---------------:||---F-----------------------------------|
T|-----------------4-5-5-6-6-7-7-:||--------x6----x7----xX----x6----x7-----|
F|--------------------------------||-----X-X---X-X---X-X---X-X---X-X---X-X-|
                                         L R   L R   L R   L R   L R   L R

     e   s s s s s s s s s s     s s s s s s e   s s s s
H|---C-------r---B---B---B---|---B---B---B---B---B---B---|
S|---X-----X-e-X--(X)--X---X-|----(X)--X---X--(X)--X---X-|
T|-----------s---------------|---------------------------|
F|-------X---t---X---X-------|---X---X-------X---X-------|

     s s s s s s s s s s s s     e   s s s s s s s s s s
H|---B---B---B---B---B---B---|---C------------------------|
S|----(X)--X---X--(X)--X---X-|----------------------------|
T|---------------------------|-------1-1-2-2-3-3-4-4-5-5--|
F|---X---X-------X---X-------|---X------------------------|

     s s s s s s s s s s s s     s s s s s s e   s s s s
H|---C---B---B---B---B---B---|---B---B---B---B---B---B---|
S|----(X)--X---X--(X)--X---X-|----(X)--X---X--(X)--X---X-|
T|---------------------------|---------------------------|
F|---X---X-------X---X-------|---X---X-------X---X-------|

     s s s s s s s s s s s s     s s s s s s s s s s s s
H|---T---T---T---T---T---T---|---C-----------------------|
S|----(X)--X---X--(X)--X---X-|-----X-X-X-X-X-X-X-X-X-X-X-|
T|---------------------------|---------------------------|
F|---X---X-------X---X-------|---X-----------------------|

     s s s s s s s s s s s s     s s s s s s s s s s s s
H|---------------------------|---------------------------|
S|---X-X-X-X-X-X-X-X-X-X-X-X-|---X-X-X-X-X-X-X-X-X-X-X-X-|
T|---------------------------|---------------------------|
F|---------------------------|---------------------------|

     s s s s s s s s s s s s     w
H|---------------------------|---C-----------------------|
S|---X-X-X-X-X-X-X-X-X-X-X-X-|---------------------------|
T|---------------------------|---------------------------|
F|---------------------------|---X-----------------------|


KEY:

 Hi-hats & Cymbals  -O-X-H--C-R-B-S-T-c-
             Snare  -X-S-R-F------------
               Tom  -1-2-3-4-5-6-7-X-G--
       Foot Pedals  -X-P----------------


Hi-hats & Cymbal line:

Hi-hats  O - OPEN HH
         X - CLOSED HH
         P - PEDAL HH
         H - HALF OPEN HH
Cymbals  C - CRASH
         c - CRASH CHOKE
         R - RIDE
         B - RIDE BELL
         S - SPLASH
         T - CHINA (AKA TRASH)

Snare line:
     X - SINGLE HIT
     R - RIMSHOT
     F - FLAM (Hit with both sticks, one slightly before the other)
     S - SIDE STICK
     x - GRACE NOTE (hit snare slightly and right before the prime note)

Tom line:
       Notated by number. 1 being the highest sounding to the lowest tom.
       (The numbers depend on how many toms Neil is using in any given song,
       it's up to you to fit them into your drumset.)
       X - Floor tom
       G - Gong bass drum
NOTE - A second tom line will be added to the bar ONLY if two toms are
        played at once.
 Foot Pedal line:
        X - KICK DRUM
        P - Hi-hat pedal
        When the right and left kick drums are being used together they will
        be notated with a right (R) or a left (L)

Rhythm:
w whole note                    W dotted whole note
h half note                     H dotted half note
q quarter note                  Q dotted quarter note
e eighth note                   E dotted eighth note
s sixteenth note                S dotted sixteenth note
t thirty-second note            T dotted thirty-second note

% - Repeat last measure

Fermata - Hold the note at pleasure

> - Accent: When a note is given special emphasis

||----||
||:--:||  Repeat
||:--:||  Signs
||----||

As a general rule, the rhythm shown above the staff will be the composite
rhythm for all the drums, as this is the only way to notate this, short
of assigning each line on the staff it's own rhythm :P.
comments
We did not receive enough feedback on this tab! Please rate:
1 2 3 4 5
I want to post or [tab]
guest
You may want to rate the tab now too:
select rating
Please do not post tabs as comments. Select "correction" instead!