Oops, an error
Loading. Please wait.

Hemispheres Tab

by Rush
ver1
ver1

Album

Whole song

More versions @911Tabs.com
2,326 views 15 this week
1 commentread comment
1 2 3 4 5
excellent!
x 4
Autoscroll
+/-
esc
set tempo
stop
Contributor
Hey! There's an official Ultimate Guitar app which is ideal
for learning songs when you're away from computer. Get the app
WARNING: You are trying to view
                                    content from Ultimate-Guitar.com
                                    in an unauthorized application,
                                    which is prohibited.

                                    Please use an official Ultimate
                                    Guitar Tabs application for iPhone,
                                    iPad or Android to access legitimate
                                    chords, guitar, bass, and drum tabs
                                    from Ultimate-Guitar.com database.

                                    Type "ultimate guitar tabs" in Apple
                                    App Store's or Android Market's
                                    search to find the application.
Rush - Hemispheres (1978 album)

Tracklist:

1. Cygnus X-1 Book II: Hemispheres (All Parts)
2. Circumstances
3. The Trees
4. La Villa Strangiato 


Cygnus X-1 Book II: Hemispheres


*********************************************************************
                    I - PRELUDE (0:00 - 4:29)
*********************************************************************

INTRO

     Q                 H.          Q
e||--0---------------|-0-----------0---|
B||--0---------------|-0-----------0---|
G|4--3---------------|-3-----------3---|
D|4--4---------------|-4-----------4---|
A||--4---------------|-4-----------4---|
E||--2---------------|-2-----------2---| x4

-----

MOVEMENT 1

     Q   E E E E   Q   E E E E
e||--------------|-----0-------|
B||--------------|-0-----------|
G|6--6---6-6-6-6-|-------------|
D|8--7---7-7-7-7-|-------7-7-7-|
A||--7---7-7-7-7-|-------7-7-7-|
E||--5---5-5-5-5-|-------5-5-5-| x2

   Q   E E E E   Q   E E E E 
e|-------------|-0-----------|
B|-0---0-0-0-0-|-----0-------|
G|-0---0-0-0-0-|-------0-0-0-|
D|-2---2-2-2-2-|-------2-2-2-|
A|-3---3-3-3-3-|-------3-3-3-|
E|-------------|-------------| x2

   Q   E E E E   Q   E E E E   E E E E E E   E E E E E E
e|-------------|-------------|-------------|-------------|
B|-------------|-------------|-------------|-------------|
G|-------------|-0---0-0-0-0-|-2-2-2-2-2-2-|-0-0-0-0-0-0-|
D|-3---3-3-3-3-|-2---2-2-2-2-|-2-2-2-2-2-2-|-2-2-2-2-2-2-|
A|-3---3-3-3-3-|-3---3-3-3-3-|-0-0-0-0-0-0-|-3-3-3-3-3-3-|
E|-1---1-1-1-1-|-3---3-3-3-3-|-------------|-3-3-3-3-3-3-| x1

-----

BRIDGE

      E E E E E E E E E E E E     E E E E E E E E E
e|||--------------------------||--------------------|
B|||--------------------------||--------------------|
G|12--------------------------|9--------------------|
D|8|--------------------------|8--------------------|
A|||--2-----------------5-----||--2-----------------|
E|||--------2-----3--/--------||--------2-----3--/--| x1

      E E E E E E E E E E E E   E E E E E E E E E E E E 
e|||--------------------------|-------------------------|
B|||--------------------------|-------------------------|
G|12--------------------------|-------------------------|
D|8|--------------------------|-------------------------|
A|||--5-----------------------|-5-----------------------|
E|||--------5-----6\----1-----|-------5-----6\--1-1---1-| x1

-----

MOVEMENT 2

     Q   E E E E         Q   E E E E
e||--------0-----|     |-------0-----|
B||------------0-|     |-----------0-|
G|6----------3---|     |---------8---|
D|8--4---4-------|     |-9---9-------|
A||--4---4-------|     |-9---9-------|
E||--2---2-------| x4  |-7---7-------| x4

play both bars above another 4 times each, then:

   Q   E E E E         Q    E  E E  E         Q   Q   Q
e|-------0-----|     |---------0------|     |-------------|
B|-----------0-|     |--------------0-|     |-------------|
G|---------6---|     |-----------11---|     |-------------|
D|-7---7-------|     |-10---12--------|     |-12--12--12--|
A|-7---7-------|     |-12---12--------|     |-12--12--12--|
E|-5---5-------| x4  |-10---10--------| x2  |-10--10--10--|

   E E E E E E   E E E E E E
e|-------------|-------------|
B|-------------|-------------|
G|-2-0---------|-4-2-0-------|
D|-----4-2-0---|-------4-2-0-|
A|-----------4-|-------------|
E|-------------|-------------| x1

-----

MOVEMENT 3

(Distorted 6-string):

     E E E E Q   E     E E E E Q     E E E E E E
e||----------------||--------------|-------------|
B||--0---0---0-----||--------------|-------------|
G|7--0---0---0-----|6--2---2---2---|-4-2-0-------|
D|8--4---4---4-----|8--2---2---2---|-------4-2-0-|
A||--2---2---2-----||--4---4---4---|-------------|
E||--3---3---3---0-||--2---2---2---|-------------| x4

-----

(Clean, 12-string):

    E E E Q   Q.    E E E Q   Q.    E E E Q   Q.    E E E Q   Q.
e||---------------|---------------|---------------|---------------|
B||---------------|---------------|---------------|-------2-------|
G|4-------0-------|-------2-------|-------0-------|-----------0---|
D|4-----4-----4---|-----2-----2---|-----4-----4---|-----2---------|
A||---2-----------|---4-----------|---2-----------|---4-----------|
E||-3-------------|-2-------------|-3-------------|-2-------------| x1

   E E E Q   Q.    E E E Q   Q.    E E E Q   Q.    E E E E+H
e|---------------|---------------|---------------|---------------|
B|---------------|---------------|---------------|-------2-------|
G|-------0-------|-------2-------|-------0-------|---------------|
D|-----4-----4---|-----2-----2---|-----4-----4---|-----2---------|
A|---2-----------|---4-----------|---2-----------|---4-----------|
E|-3-------------|-2-------------|-3-------------|-2-------------| x1

-----

     E E E E Q   E   E E E E Q   E   E E E E Q   E     W+E
e||----------------|---------------|---------------||---------------|
B||--0---0---0-----|---------------|-0---0---0-----||---------------|
G|7--0---0---0-----|-2---2---2-----|-0---0---0-----|9--2------------|
D|8--4---4---4-----|-2---2---2-----|-4---4---4-----|8--2------------|
A||--2---2---2-----|-4---4---4-----|-2---2---2-----||--4------------|
E||--3---3---3---0-|-2---2---2---0-|-3---3---3---0-||--2------------| x1

     E E E E E E     E E E E Q   E     E E H+E
e||--------------||----------------||-----------------||--------------|
B||--------------||--0---0---0-----||-----------------||--------------|
G|6--4-2-0-------|4--0---0---0-----|9--2---2----------|6--4-2-0-------|
D|8--------4-2-0-|4--4---4---4-----|8--2---2----------|8--------4-2-0-|
A||--------------||--2---2---2-----||--4---4----------||--------------|
E||--------------||--3---3---3---0-||--2---2----------||--------------| x1

     E E E E Q   E   E E Q   E E E 
e||----------------|---------------|
B||--0---0---0-----|---------------|
G|7--0---0---0-----|-2---2---------|
D|8--4---4---4-----|-2---2---------|
A||--2---2---2-----|-4---4-----0---|
E||--3---3---3---0-|-2---2---3---3\| x1

-----
    
     E E E Q   Q   E   E E E Q   Q.
e||------------------|----------------|    |------------------------|
B||------------------|-----------0----|    |-----0------------------|
G|4--------0---------|-------0--------|    |----0-------------------|
D|4------2-----2-----|-----2----------|    |---2--------------------|
A||----3-----------3-|---3------------|    |--2---------------------|
E||--1---------------|-1--------------| x2 |-0----------------------|


*********************************************************************

MOVEMENT 4 - QUIET HARMONICS SECTION [Still 4/4 time signature]

   Q   Q   Q   E E   Q   Q   Q   E E   Q   Q   Q   E  E   Q   Q   Q   E E
e|-----------------|-----------------|------------------|-----------------|
B|-----------------|-----------------|------------------|-----------------|
G|-----------------|-----------------|---------------+--|-----------------|
D|-----+---------+-|-----+---------+-|-----+---------12-|-----+---------+-|
A|-----5---+---+-7-|-----5---+---+-7-|-----5---+---+----|-----5---+---+-9-|
E|---------9---7---|---------9---7---|---------9---7----|---------9---7---|

*play the above 4 times, then:

   Q   Q   Q   E E
e|-----------------|
B|-----------------|
G|-----------------|
D|-----+---------+-|
A|-----5---+---+-7-|
E|---------9---7---| x3

Then, play this once:

   Q   Q   Q   E  E   Q   Q   Q   E E   Q   Q   Q   E E   Q   Q   Q   E E
e|------------------|-----------------|-----------------|-----------------|
B|------------------|-----------------|-----------------|-----------------|
G|---------------+--|-----------------|-----------------|-----------------|
D|-----+---------12-|-----+-----------|-----+---------+-|-----+-----------|
A|-----5---+---+----|-----5---+---+---|-----5---+---+-9-|-----5---+---+---|
E|---------9---7----|---------9---7---|---------9---7---|---------9---7---|

-----

MOVEMENT 5 (PRE-VERSE) [Still 4/4 time signature]

   E E E E E E E E   E E E E E E E E   E E Q   E Q   E
e|-----------------|-----------------|-----------------|
B|-----------------|---2-------------|-----9---9-9-----|
G|-2-2-2-2-4-4-4-4-|---2-2-2-2-2-2---|-----9---9-9-----|
D|-2-2-2-2-4-4-4-4-|---2-2-2-2-2-2---|-----9---9-9-----|
A|-0-0-0-0-2-2-2-2-|---4-2-4-5-4-2---|-----7---7-7-----|
E|-----------------|---------------0-|---0-----------0-|

   E S S E.  S E  E E E   E E Q   Q   E E   E E E E E E E E
  --------------------2-|---3-3---3---3-2-|---3-2-----------|
  -------10----10-9---3-|---3-3---3---3-3-|---3-3-----------|
  -------9---9-9--9---2-|---2-2---2---2-2-|---2-2-----------|
  ---9-9-9---9-9--9-0-0-|---0-0---0---0-0-|---0-0-----------|
  ---7-7-7---7-7--7-0---|-----------------|-----------0-2---|
  ---0-0------------0---|-----------------|-------0-4-------|
   
   Q   Q   Q   E E   E E E E E E E E   E E E E E E E E   E E Q   E E Q   
  -----0---0-------|-----0-0-0-0-0---|-----------------|-----------------|
  -----2---2---2-2-|-----2-2-2-2-2---|-----------------|-----------------|
  -----2---2---2-2-|---2-2-2-2-2-2---|-2-2-2-2-4-4-4-4-|-----------------|
  -----2---2---2-2-|---2-2-2-2-2-2---|-2-2-2-2-4-4-4-4-|-----------------|
  -----0---0---0-0-|---0-0-0-0-0-0-0-|-0-0-0-0-2-2-2-2-|---4-------5-----|
  -----------------|---------------0-|-----------------|-----------------|
  
   Q   Q   Q   E E
  -----------------|
  -----------------|
  -----------------|
  -----7~~-6-------|
  -------------7---|
  ---------------0-| --> into verse


*********************************************************************

MOVEMENT 6 (VERSE) [Still 4/4 time signature]

Chords used:

    E   A   F#  D5  A7  B5  A/C#
e|--0---------------------------|
B|--0---2---2-------------------|
G|--1---2---3---7---6---4---2---|
D|--2---2---4---7---7---4---2---|
A|--2---0---4---5---4---2---4---|
E|--0-------2-------------------|

E              A F#
  When our weary world was young

    D5       A7 B5  A/C# B5     A7    D5  E
The struggle of the An...cients first began

                 A   F#
The Gods of Love and Reason

D5       A7  B5 A/C# B5  A7   D
Sought alone to rule the fate of Mannnnn...


*NEW RIFF:

  "...the fate of Mannnnn!"
   E Q   Q   Q   E     E E E E E E E E E E Q   E E 
e|-----------------||-------------------------------|
B|-----------------||-------------------------------|
G|---4---6---7-----|7o-----2-------------1---------o|
D|---4---7---7-----|4o-0-2-----2---0---2-----------o|
A|---2---4---5---4-||--------0---4---2-----------4--|
E|-----------------||----------------------4---0----| x7

They battled through the ages
But still neither force would yield
The people were divided
Every soul a battlefield...

Then,

e|-----------------------------|
B|-----------------------------|
G|-----2-------------1---------|
D|-0-2-----2---0---2-----------|
A|-------0---4---2-------------|
E|---------------------4---0-2-| x1

**NOTE: There are other ways to play this riff (on other strings),
        but I think Alex plays it this way.


*********************************************************************

MOVEMENT 7

Strum the following chords:

e||--3------|-2------|-1------|--------|
B||--3------|-3------|-1------|-0------|
G|4--4------|-4------|-2------|-2------|
D|4--5------|-4------|-3------|-2------|
A||--5------|-2------|-3------|-0------|
E||--3------|--------|-1------|--------| x1

e|-3------|-2------|-1------|-0------|-0------|-----------|-----------|
B|-3------|-3------|-1------|-0------|-0------|-----------|-----------|
G|-4------|-4------|-2------|-6------|-0------|------0----|-2----0----|
D|-5------|-4------|-3------|-7------|-2------|-3----2----|-2----2----|
A|-5------|-2------|-3------|-7------|-3------|-3----3----|-0----3----|
E|-3------|--------|-1------|-5------|--------|-1----3----|------3----| x1

-----

MOVEMENT 2 RELAPSE

     Q   E E E E         Q   E E E E
e||--------0-----|     |-------0-----|
B||------------0-|     |-----------0-|
G|6----------3---|     |---------8---|
D|8--4---4-------|     |-9---9-------|
A||--4---4-------|     |-9---9-------|
E||--2---2-------| x4  |-7---7-------| x4

-----

BASICALLY, MOVEMENT 1 RELAPSE (with some very minor variation)


     Q   E E E E   Q   E E E E
e||--------------|-----0-------|
B||--------------|-0-----------|
G|6--6---6-6-6-6-|-------------|
D|8--7---7-7-7-7-|-------7-7-7-|
A||--7---7-7-7-7-|-------7-7-7-|
E||--5---5-5-5-5-|-------5-5-5-| x2

   Q   E E E E   Q   E E E E 
e|-------------|-0-----------|
B|-0---0-0-0-0-|-----0-------|
G|-0---0-0-0-0-|-------0-0-0-|
D|-2---2-2-2-2-|-------2-2-2-|
A|-3---3-3-3-3-|-------3-3-3-|
E|-------------|-------------| x2


e|-----------|-----------|
B|-----------|-----------|
G|------0----|-2----0----|
D|-3----2----|-2----2----|
A|-3----3----|-0----3----|
E|-1----3----|------3----| x1

   Hold this E chord...
e|-0------------------------------------------|
B|-0------------------------------------------|
G|-1------------------------------------------|
D|-2------------------------------------------|
A|-2------------------------------------------|
E|-0------------------------------------------|


*********************************************************************
           II - Apollo [Bringer of Wisdom] (4:30 - 6:58)
*********************************************************************

INTRO/VERSE 1

e||--------------|
B||--------------|
G|6--4-2-0-------|
D|8--------4-2-0-|
A||--------------|
E||--------------| x1

     E E E E Q   E   E E E E Q   E   E E E E Q   E   E+H.
e||----------------|---------------|---------------|-------------|
B||--0---0---0-----|---------------|-0---0---0-----|-------------|
G|7--0---0---0-----|-2---2---2-----|-0---0---0-----|-2-----------|
D|8--4---4---4-----|-2---2---2-----|-4---4---4-----|-2-----------|
A||--2---2---2-----|-4---4---4-----|-2---2---2-----|-4-----------|
E||--3---3---3---0-|-2---2---2---0-|-3---3---3---0-|-2-----------| x2

   E E E E Q   E   E E H+E
e|---------------|-------------|
B|-0---0---0-----|-------------|
G|-0---0---0-----|-2---2-------|
D|-4---4---4-----|-2---2-------|
A|-2---2---2-----|-4---4-------|
E|-3---3---3---0-|-2---2-------| x1

I bring Truth, and Understanding
I bring Wit, and Wisdom fair
Precious gifts beyond compare

-----

    E E E Q   Q.    E E E Q   Q.    E E E Q   Q.    E E E Q   Q.
e||---------------|---------------|---------------|---------------|
B||---------------|---------------|---------------|-------2-------|
G|4-------0-------|-------2-------|-------0-------|-----------0---|
D|4-----4-----4---|-----2-----2---|-----4-----4---|-----2---------|
A||---2-----------|---4-----------|---2-----------|---4-----------|
E||-3-------------|-2-------------|-3-------------|-2-------------| x1

   E E E Q   Q.    E E E Q   Q.    E E E Q   Q.    E E E E+H
e|---------------|---------------|---------------|---------------|
B|---------------|---------------|---------------|-------2-------|
G|-------0-------|-------2-------|-------0-------|---------------|
D|-----4-----4---|-----2-----2---|-----4-----4---|-----2---------|
A|---2-----------|---4-----------|---2-----------|---4-----------|
E|-3-------------|-2-------------|-3-------------|-2-------------| x1

We can build a world of wonder
I can make you all aware

-----

   E E E E Q   E   E E E E Q   E   E E E E Q   E   E+H.
e|---------------|---------------|---------------|-----------|
B|---------------|---------------|---------------|-----------|
G|---------------|---------------|---------------|-----------|
D|-7---7---7-----|-5---5---5-----|-7---7---7-----|-5---------|
A|-5---5---5---0-|-7---7---7---0-|-5---5---5---0-|-7---------|
E|-6---6---6-----|-5---5---5-----|-6---6---6-----|-5---------| x1

   E E E E Q   E   E E H+E
e|---------------|--------------|
B|---------------|--------------|
G|---------------|--------------|
D|-7---7---7-----|-5---5--------|
A|-5---5---5-----|-7---7--------|
E|-6---6---6---0-|-5---5--------| x1

I will bring you food and shelter
Show you fire to keep you warm
Through the endless winter storm

-----

    E E E Q   Q.    E E E Q   Q.    E E E Q   Q.    E E E Q   Q.
e||---------------|---------------|---------------|---------------|
B||---------------|---------------|---------------|-------5-------|
G|4-------0-------|-------5-------|-------0-------|-----------0---|
D|4-----7-----7---|-----5-----5---|-----7-----7---|-----5---------|
A||---5-----------|---7-----------|---5-----------|---7-----------|
E||-6-------------|-5-------------|-6-------------|-5-------------| x1

   E E E Q   Q.    E E E Q   Q.    E E E Q   Q.    W
e|---------------|---------------|---------------|-----------|
B|---------------|---------------|---------------|-5---------|
G|-------0-------|-------5-------|-------0-------|-5---------|
D|-----7-----7---|-----5-----5---|-----7-----7---|-5---------|
A|---5-----------|---7-----------|---5-----------|-7---------|
E|-6-------------|-5-------------|-6-------------|-5---------| x1

You can live in grace and comfort
In the world that you transform...

-----

BRIDGE TO VERSE 2

     E+H.            H.        Q
e||--0-----------||--0---------0---|
B||--0-----------||--0---------0---|
G|7--3-----------|8--3---------3---|
D|8--4-----------|8--4---------4---|
A||--4-----------||--4---------4---|
E||--2-----------||--2---------2---| x2
   
     E+H.          H.      Q      W
  |--0---------||--0-------0---||-0-----------||-0---0---0---0-0-|
  |--0---------||--0-------0---||-0-----------||-0---0---0---0-0-|
  7--6---------|8--6-------6---|7-6-----------|8-6---6---6\--3-3-|
  8--7---------|8--7-------7---|8-7-----------|8-7---7---7\--4-4-|
  |--7---------||--7-------7---||-7-----------||-7---7---7\--4-4-|
  |--5---------||--5-------5---||-5-----------||-5---5---5\--2-2-|

     E E E E E E   Q   Q   E E 
  |----0---0-0---|-------------|
  |----0---0-0---|-------------|
  6----3---3-3---|-------------|
  8----4---4-4---|/7~~-6-------|
  |----4---4-4---|---------7---|
  |----2---2-2---|-----------0-| ---> into verse 2

-----

VERSE 2

Riff:

   E E Q   E Q   E   E S S E.  S E  E E E   E E Q   Q   E E 
e|-----------------|--------------------2-|---3-3---3---3-2-|
B|-----9---9-9-----|-------10----10-9---3-|---3-3---3---3-3-|
G|-----9---9-9-----|-------9---9-9--9---2-|---2-2---2---2-2-|
D|-----9---9-9-----|---9-9-9---9-9--9-0-0-|---0-0---0---0-0-|
A|-----7---7-7-----|---7-7-7---7-7--7-0---|-----------------|
E|---0-----------0-|---0-0------------0---|-----------------|

   E E E E E E E E   Q   Q   Q   E E   E E E E E E E E   E E E E E E E E
  ---3-2-----------|-----0---0-------|-----0-0-0-0-0---|-----------------|
  ---3-3-----------|-----2---2---2-2-|-----2-2-2-2-2---|-----------------|
  ---2-2-----------|-----2---2---2-2-|---2-2-2-2-2-2---|-2-2-2-2-4-4-4-4-|
  ---0-0-----------|-----2---2---2-2-|---2-2-2-2-2-2---|-2-2-2-2-4-4-4-4-|
  -----------0-2---|-----0---0---0-0-|---0-0-0-0-0-0-0-|-0-0-0-0-2-2-2-2-|
  -------0-4-------|-----------------|---------------0-|-----------------|
   
   Q   Q   Q   E E
  -----------------|
  ---2-------------|
  ---2-2-2-2-2-2---|
  ---2-2-2-2-2-2---|
  ---4-2-4-5-4-2---|
  ---------------0-| (repeat over lyrics)


The people were delighted
Coming forth to claim their prize
They ran to build their cities
And converse among the wise

But one day the streets fell silent
Yet they knew not what was wrong
The urge to build these fine things
Seemed not to be so strong

The wise men were consulted
And the Bridge of Death was crossed
In quest of Dionysus

e|-------------------------------------|
B|-------------------------------------|
G|-2-2-----4-4------6-6------7-7-------|
D|-2-2-----4-4------7-7------7-7-------|
A|-0-0-----2-2------4-4------5-5-5-4-0-|
E|-------------------------------------|

To find out what they had lost...

   
e|-------------------|---------------|
B|-4-----------------|---------------|
G|-4---4-4-4-6-6-6-6-|---8---8-8-----|
D|-4---4-4-4-6-6-6-6-|---9---9-9-9---|
A|-2---2-2-2-4-4-4-4-|---6---6-7-6---|
E|-------------------|-------------0-| --> Into Guitar Solo 1

-----

GUITAR SOLO 1 (rhythm guitar chords above note duration line)


                F#
   H      Q   E E   E Q   E  E Q   E    H     Q  E E   H      E  E  E E  
e|----------------|-------------------|--------------|------------------|
B|--------------2-|----------5-2---2--|--------------|-------[7]-5------|
G|--------------4b|---r---b~~--4b--4b~|~~~~~~\x-/x---|-------------[6]--|
D|----------------|-------------------|------\x-/x-4~|~~~~------------4~|
A|----------------|-------------------|--------------|------------------|
E|----------------|-------------------|--------------|------------------|
 
   Q   Q   Q   E E        Q   Q.           E   S  S  S  S
  ---------------14-----|-----14---------------------------|
  ---------------17b(19)|-----17b(19)~~~-b(20)r17h14--14h16|
  -----/x\-/x\----------|----------------------------15----|
  ~~~~~/x\-/x\----------|----------------------------------|
  ----------------------|----------------------------------|
  ----------------------|----------------------------------|
  
   S   S  S S  S  S  S  S  S  S  E  E  E   Q3   Q3 Q3 E  S  S  E   S  S
  ---------------------------------------|-------------------------------|
  p14-14------------------------------14b|(16)--b--b--14-----------------|
  -------16p15-x-15b(18)rb(17)r-15-16----|---------------15h16p15--15----|
  ---------------------------------------|----------------------------16-|
  ---------------------------------------|-------------------------------|
  ---------------------------------------|-------------------------------|

                 D
   Q.     E Q  E E    Q   Q    S S3S3 S3 S S S S S
  ---------------15b|(17)-b~~~~~------------------------|
  ------------------|------------x-12-12h14--17--17b(19)|
  ------------------|-----------------------------------|
  -14~~~~~\---------|-----------------------------------|
  ------------------|-----------------------------------|
  ------------------|-----------------------------------|

  S3S3 S3  S S  S S  Q     E3 E3 E3 E    Q       E       E  E  E  E  E
  -------------------------------------|--------------------------------|
  rp15-17p15p14--12h14-----14-14-15-17-|-17b(19)-17b(19)-17-14-15-12-14-|
  -------------14----------------------|--------------------------------|
  -------------------------------------|--------------------------------|
  -------------------------------------|--------------------------------|
  -------------------------------------|--------------------------------|

                      B
   E  E  Q.     E   E E   Q    Q    Q.      E
  ----------------------|---------------------|
  -15-14-12~~~~~\-----4-|------0--------------|
  --------------------6b|(8)-------(8)r6----6~|
  ----------------------|---------------------|
  ----------------------|---------------------|
  ----------------------|---------------------|

  E.  S3S3S3S3S3S3 T S S3S3S3S3S3S3E3S3ST
  ---------------------------------------|
  ---------------------------------------|
  ~~~-4h6p4p3h4----3---4p3-------------3-|
  ----------------6--6-----6p4h6p4--4----|
  ---------------------------------------|
  ---------------------------------------|

   S3...........................................     E E H+E
  -----------------------------------------------||------------------|
  -----------------------------------------------||------------------|
  -3-3-4-4-3-3-3-4-6-6-4-4-6-6-4-4-6-6-8-8-6-6-8-|7--9-8-9b(11)~~~~~-|
  -----------------------------------------------|8------------------|
  -----------------------------------------------||------------------|
  -----------------------------------------------||------------------|


-----

BRIDGE

     E E E Q   Q   E   E E E Q   Q   E
e||------------------|-----------------|
B||------------------|-----------0---0-|
G|4--------0---------|-------0---------|
D|4------2-----2-----|-----2-----------|
A||----3-----------3-|---3-------------|  
E||--1---------------|-1---------------| x2


*********************************************************************
         III - Dionysus [Bringer of Love] (6:59 - 9:53)
*********************************************************************

***Follow the same structure as the Apollo section.

I bring Love to give you solace
In the darkness of the night
In the heart's eternal light
You need only trust your feelings
Only Love can steer you right

I bring Laughter, I bring Music
I bring Joy, and I bring Tears
I will soothe your primal fears
Throw off those chains of Reason
And your prison disappears

The cities were abandoned
And the forests echoed song
They danced and lived as brothers
They knew Love could not be wrong

Food and wine they had aplenty
And they slept beneath the stars
The people were contented
And the Gods watched from afar

But the winter fell upon them
And it caught them unprepared
Bringing wolves and cold starvation
And the hearts of men despaired... -->into next bar below:

     W           H       Q   Q     W           H       Q   Q
e||--0---------|-0-------0---0---|-0---------|-0-------0---0---|
B||--0---------|-0-------0---0---|-0---------|-0-------0---0---|
G|4--6---------|-6-------6---6---|-0---------|-0-------0---0---|
D|4--7---------|-7-------7---7---|-2---------|-2-------2---2---|
A||--7---------|-7-------7---7---|-3---------|-3-------3---3---|
E||--5---------|-5-------5---5---|-----------|-----------------| x1

   H    H      H    H
e|-----------|-----------|
B|-----------|-1---------|
G|------0----|-2----0----|
D|-3----2----|-2----2----|
A|-3----3----|-0----3----|
E|-1----3----|------3----| x1


-----

SOLO BREAK (repeat twice)

      E E E E E E E E E E E E     E E E E E E E E E
e|||--------------------------||--------------------|
B|||--------------------------||--------------------|
G|12--4---4-4-4-4-4-4-4-7---7-|9--4---4-4-4-4-4-4-4-|
D|8|--4---4-4-4-4-4-4-4-7---7-|8--4---4-4-4-4-4-4-4-|
A|||--2---2-x-x-x-x-x-x-x---x-||--2---2-x-x-x-x-x-x-|
E|||--------2-2-2-3-3-3-6---6-||--------2-2-2-3-3-3-|

      E E E E E E E E E E E E
e|||--------------------------|
B|||--------------------------|
G|12--7---7-7-7-7-7-----------|
D|8|--7---7-7-7-7-7-----3---3-|
A|||--5---5-x-x-x-x-----3---3-|
E|||--------5-5-5-6-5-0-1---1-| x2

-----

INTERLUDE (similar to this):

     W           W
e||--0---------|-0---------|
B||--0---------|-0---------|
G|4--6---------|-0---------|
D|4--7---------|-2---------|
A||--7---------|-3---------|
E||--5---------|-----------| x1

   H    H      H    H
e|-----------|-----------|
B|-----------|-1---------|
G|------0----|-2----0----|
D|-3----2----|-2----2----|
A|-3----3----|-0----3----|
E|-1----3----|------3----| x1


-----

GUITAR RUN (play twice):

      E E E E E E E E E E E E     E E E E E E E E E
e|||--------------------------||--------------------|
B|||--------------------------||--------------------|
G|12--4-2-0-----------0-2-0---|9--4-2-0-------------|
D|8|--------4-2-0-2-4-------4-|8--------4-2-0-2-4-2-|
A|||--------------------------||--------------------|
E|||--------------------------||--------------------|

      E E E E E E E E E E E E   E E E E E E E E E E E E
e|||--------------------------|-------------------------|
B|||--------------------------|-------------------------|
G|12--------------------------|-------------------------|
D|8|--0-------------------3-2-|-0-------------------3-2-|
A|||--------0---1-0-3-1-0-----|-------0---1-0-3-1-0-----|
E|||----1-3---3---------------|---1-3---3---------------|

-----

INTERLUDE AGAIN (similar to this):

     W           W
e||--0---------|-0---------|
B||--0---------|-0---------|
G|4--6---------|-0---------|
D|4--7---------|-2---------|
A||--7---------|-3---------|
E||--5---------|-----------| x1

   H    H      H    H
e|-----------|-----------|
B|-----------|-1---------|
G|------0----|-2----0----|
D|-3----2----|-2----2----|
A|-3----3----|-0----3----|
E|-1----3----|------3----| x1


*********************************************************************
    IV - Armageddon [The Battle of Heart and Mind] (9:54 - 12:43)
*********************************************************************

Riff 1:

      E E E E E E E E E E E E
e|||--------------------------|
B|||--------------------------|
G|12------4-----4-----4-----7-|
D|8|----4-----4-----4-----7---|
A|||--2-----------------5-----|
E|||--------2-----3-----------| x3

   E E E E E E E E E E E  E
e|---------------------------|
B|---------------------------|
G|-----7-----7-----7------10-|
D|---7-----7-----7-----10----|
A|-5-----------------8-------|
E|-------5-----6-------------| x2

The Universe divided
As the Heart and Mind collided
With our people left unguided
For so many troubled years
In a cloud of doubts and fears

     W           W
e||--0---------|-0---------|
B||--0---------|-0---------|
G|4--6---------|-0---------|
D|4--7---------|-2---------|
A||--7---------|-3---------|
E||--5---------|-----------| x1

   H    H      H    H
e|-----------|-----------|
B|-----------|-1---------|
G|------0----|-2----0----|
D|-3----2----|-2----2----|
A|-3----3----|-0----3----|
E|-1----3----|------3----| x1

Our world was torn asunder
Into hollow hemispheres

-----

     Q   E E E E         Q   E E E E
e||--------0-----|     |-------0-----|
B||------------0-|     |-----------0-|
G|6----------3---|     |---------8---|
D|8--4---4-------|     |-9---9-------|
A||--4---4-------|     |-9---9-------|
E||--2---2-------| x4  |-7---7-------| x4

-----

**Repeat same pattern for the next verse: 

Some fought themselves, some fought each other
Most just followed one another
Lost and aimless like their brothers
For their Hearts were so unclear
And the Truth could not appear
Their spirits were divided
Into blinded hemispheres

-----

PLAY OVER LYRICS (in order):

     Q   E E E E         Q   E E E E
e||--------0-----|     |-------0-----|
B||------------0-|     |-----------0-|
G|6----------3---|     |---------8---|
D|8--4---4-------|     |-9---9-------|
A||--4---4-------|     |-9---9-------|
E||--2---2-------| x4  |-7---7-------| x4  [repeat 4 times]

   Q   E E E E         Q    E  E E  E    
e|-------0-----|     |---------0------|   
B|-----------0-|     |--------------0-|  
G|---------6---|     |-----------11---|    
D|-7---7-------|     |-10---12--------|    
A|-7---7-------|     |-12---12--------|    
E|-5---5-------| x4  |-10---10--------| x4 [repeat 2 times]

     Q   E E E E         Q   E E E E
e||--------0-----|     |-------0-----|
B||------------0-|     |-----------0-|
G|6----------3---|     |---------8---|
D|8--4---4-------|     |-9---9-------|
A||--4---4-------|     |-9---9-------|
E||--2---2-------| x4  |-7---7-------| x4


Some who did not fight
Brought tales of old to light
My 'Rocinante' sailed by night
On her final flight
To the heart of Cygnus' fearsome force
We set our course
Spiralled through that timeless space
To this immortal place

**you know this riff quite well by now:

     W           W
e||--0---------|-0---------|
B||--0---------|-0---------|
G|4--6---------|-0---------|
D|4--7---------|-2---------|
A||--7---------|-3---------|
E||--5---------|-----------| x1

   H    H      H    H
e|-----------|-----------|
B|-----------|-1---------|
G|------0----|-2----0----|
D|-3----2----|-2----2----|
A|-3----3----|-0----3----|
E|-1----3----|------3----| x1

Then:

   Q  Q  Q  Q   Q   Q   Q Q      H      H       
e|------------|----------------|-3-------------|-3------------------|
B|------------|----------------|-3------4------|-4------------------|
G|------------|----------------|-4------3------|-5------------------|
D|------------|----------------|-5------5------|-5------------------|
A|-------2--3-|-/5--6--/9-10\--|-5------6------|-3------------------|
E|-3--4-------|----------------|-3------3------|--------------------|


*********************************************************************

Soft electric strums (12:00):

e|------6----------------0------------------0-------------|
B|-----7----------------0----------------0----------------|
G|----8----------------0--------------0-------------------|
D|---8----------------4-------------2---------------------|
A|--6----------------2------------2-----------------------|
E|-6----------------0-----------0-------------------------|


Next is the synth interlude, into the next section:


*********************************************************************
         V - Cygnus [Bringer of Balance] (12:44 - 17:02)
*********************************************************************

Synth chords (for guitar):

   D  G  Em Bm A  A* C  F  E
e|-2--3--0--2--0--5--3--1--0--|
B|-3--3--0--3--2--5--x--1--0--|
G|-2--0--0--4--2--x--5--x--X--|
D|-0--0--2--4--2--7--5--3--2--|
A|----x--2--2--0--7--3--3--2--|
E|----3--0--------5-----1--0--|

       D
I have memory and awareness

      G
But I have no shape or form

     Em
As a disembodied spirit

     Bm
I am dead and yet unborn

       G
I have passed into Olympus

       D
As was told in tales of old

       A
To the City of Immortals

       D
Marble white and purest gold

-----

          A*
I see the Gods in battle rage on high

C
Thunderbolts across the sky

  F
I cannot move, I cannot hide

         E
I feel a silent scream begin inside...

-----

MOVEMENT 2

   H.       E E     E E E E E E E E E E Q   E E 
e|--------------||-------------------------------|
B|--------------||-------------------------------|
G|--------------|7o-----2-------------1---------o|
D|--------------|4o-0-2-----2---0---2-----------o|
A|------------4-||--------0---4---2-----------4--|
E|--------------||----------------------4---0----| x4

e||--------------------------|
B||--------------------------|
G|6-----2-------------1------|
D|4-0-2-----2---0---2--------|
A||-------0---4---2----------|
E||---------------------4\---| x1

Then all at once the Chaos ceased
A stillness fell, a sudden peace
The Warriors felt my silent cry
And stayed their struggle, mystified

-----

NEXT VERSE

Chords used:

    E   A   F#  D5  A7  B5  A/C#
e|--0---------------------------|
B|--0---2---2-------------------|
G|--1---2---3---7---6---4---2---|
D|--2---2---4---7---7---4---2---|
A|--2---0---4---5---4---2---4---|
E|--0-------2-------------------|


E           A   F#
 Apollo was astonished

    D5   A7      B5 A/C# B5 A7 D7
Dionysus thought me mad

E                A   F#
  But they heard my story further

         D5        A7  B5   A/C# B5 A7 D7
And they wondered, and were sad

E              A      F#
  Looking down from Olympus

     D5       A7    B5  A/C# B5 A7 D7
On a world of doubt and fear

E          A    F#     
   It's surface splintered into

D5    A7 B5 A/C# B5 A7 D5 -----> [continue pattern through guitar solo]:
Sorry hemispheres

-----

GUITAR SOLO 2

   Q   H+E     E       H+E    S S SS3S3S3S3T3 Q.    S E3E3E3TS3S3S3S3S3S3T
e|-------------------|----------------------|-----------------------------|
B|-------------------|----------------------|-----------------------------|
G|-------------9b(11)|~~~~~~\--------------6|-7~~~~-6-7-9-7--6h7p6---6----|
D|-----2~~~~~~-------|----------------------|----------------------9---9--|
A|-------------------|-------------0-1-2-4--|-----------------------------|
E|-------------------|--------0-2-3---------|-----------------------------|

   E S S E E Q.   E      Q    E  Q            H       Q   E E
e|---------------------|--------------------|----------------------|
B|---------------------|--------[9]b(12)-p7~|~~~~~~~~~x-----15b(17)|
G|----------------4b(6)|---r----------------|----------------------|
D|-7-4-6-4-4-----------|--------------------|----------------------|
A|-----------7--\------|-----[3]------------|----------------------|
E|---------------------|--------------------|----------------------|

   H.        E  E3   E3  E3   E3 E3 E3  E        H+E
e|--------------------------|--------------------------------|
B|~~~~~~~~~-15-[15]-[14]-12-|----12--------------------------|
G|--------------------------|-14----14-[12]b(13)-------------|
D|--------------------------|-------------------[14]~~~~~~~~-|
A|--------------------------|--------------------------------|
E|--------------------------|--------------------------------|

-----

NEXT VERSE:

   H.       E E     E E E E E E E E E E Q   E E 
e|--------------||-------------------------------|
B|--------------||--------------------0----------|
G|--------------|7o-----2-----------------------o|
D|--------------|4o-0-2-----2---0---2-----------o|
A|------------4-||--------0---4---2-----------4--|
E|--------------||----------------------4---0----| x2

**NOTE: riff is slightly different (compare to previous verse)

They sat awhile in silence
Then they turned at last to me

G                Bm
We will call you Cygnus,

           F                 -->(see tab below)
The God of Balance you shall be

     E+H.            H.        Q
e||--0-----------||--0---------0---|
B||--0-----------||--0---------0---|
G|7--3-----------|8--3---------3---|
D|8--4-----------|8--4---------4---|
A||--4-----------||--4---------4---|
E||--2-----------||--2---------2---| x2

     E+H.            H.        Q
e||--0-----------||--0---------0---|
B||--0-----------||--0---------0---|
G|7--6-----------|8--6---------6---|
D|8--7-----------|8--7---------7---|
A||--7-----------||--7---------7---|
E||--5-----------||--5---------5---| x1

Then, jam the end of the song with these chords:

e|-1-------|-0-------|-0-------|-3-------|-
B|-1-------|-1-------|-1-------|-3-------|-
G|-2-------|-0-------|-0-------|-0-------|-
D|-3-------|-2-------|-2-------|-0-------|-
A|-3-------|-3-------|-3-------|-x-------|-
E|-1-------|-0-------|---------|-3-------|-

  ---------|-1-------|-0-------|-3-------|
  -3-------|-1-------|-1-------|-3-------|
  -3-------|-2-------|-0-------|-0-------|
  -3-------|-3-------|-2-------|-0-------|
  -1-------|-3-------|-3-------|-x-------|
  ---------|-1-------|---------|-3-------| x2

AND END WITH:

     Q   E E E E   Q   E E E E
e||--------------|-----0-------|
B||--------------|-0-----------|
G|6--6---6-6-6-6-|-------------|
D|8--7---7-7-7-7-|-------7-7-7-|
A||--7---7-7-7-7-|-------7-7-7-|
E||--5---5-5-5-5-|-------5-5-5-| x2

   Q   E E E E   Q   E E E E 
e|-------------|-0-----------|
B|-0---0-0-0-0-|-----0-------|
G|-0---0-0-0-0-|-------0-0-0-|
D|-2---2-2-2-2-|-------2-2-2-|
A|-3---3-3-3-3-|-------3-3-3-|
E|-------------|-------------| x2

   H    H      H    
e|-----------|-------------|
B|-----------|-1-----------|
G|------0----|-2----0-0-0--|
D|-3----2----|-2----2-2-2--|
A|-3----3----|-0----3-3-3--|
E|-1----3----|------3-3-3--| x1

e|-0----------------|
B|-0----------------|
G|-6----------------|
D|-7----------------|
A|-7----------------|
E|-5----------------| [rapidly strum this into oblivion]


*********************************************************************
          VI The Sphere [A Kind of Dream] (17:03 - 18:08)
*********************************************************************


12-String Acoustic chords used:

   D  G1 Bm  Asus4 A1  C#m  G2 Esus4  E  F# G3  A2 C7M  F
e|-2--7--2----0----0----4----3---0----0--2--3---0---0---1--|
B|-3--8--3----3----2----5----3---0----0--2--3---0---0---1--|
G|-2--7--4----2----2----6----4---2----1--3--0---6---0---2--|
D|-0--0--4----2----2----6----5---2----2--4--0---7---2---3--|
A|-------2----0----0----4----5---2----2--4--2---7---3---3--|
E|---------------------------3---0----0--2--3---5-------1--|

       D                G1            Bm                    Asus4   A1
We can walk our road together, if our goals are all the same

       C#m           G              Esus4 E           F#
We can run alone and free, if we pursue a different aim

        D                   G2
Let the truth of Love be lighted

        Bm                  A2                C#m
Let the love of Truth shine clear, sensibility

                     G
Armed with sense and liberty

         Bm                         A2     C7M     F       G     D
With the Heart and Mind united in a single perfect sphere



Circumstances:



Intro
                    Am                Bm  Am            G     D
            e e e   q e e e e e e e   q   q e e e e e   e e e Q
|-----------------|-----------------|-----------------|-3-3-3-2-----|
|-----------------|-1---------------|-3---1-----------|-3-3-3-3-----|
4-----------------|-2---------------|-4---2-----------3-0-0-0-2-----|
4-----------------|-2---------------|-4---2-----------4-0-0-0-0-----|
|-----------3-2---|-0-0-0-0-0-3-2---|-2---0-0-0-0-0-0-|-2-2-2-------|
|---------------3-|---------------3-|-----------------|-3-3-3-------|

  G     D                   Am                Bm  Am
  e e e he          e e e   q e e Q   e e e   q   q e e Q   e e e
|-3-3-3-2-|---------------|-----------------|---------------------|
|-3-3-3-3-|---------------|-1-----1---------|-3---1-----1---------|
2-0-0-0-2-7---------------|-2-----2---------5-4---2-----2---------|
4-0-0-0-0-8---------------|-2-----2---------4-4---2-----2---------|
|-2-2-2---|---------3-2---|-0-0-0-0---3-2---|-2---0-0-0-0---3-2---|
|-3-3-3---|-------------3-|---------------3-|-------------------3-|

  Am                G     D       G     D         A...
  q e e Q   e e e   e e e q       e e e he        *
|-----------------|-3-3-3-2-----|-3-3-3-2-------------|
|-1-----1---------|-3-3-3-3-----|-3-3-3-3-------------|
4-2-----2---------3-0-0-0-2-----5-0-0-0-2-------------|
4-2-----2---------4-0-0-0-0-----4-0-0-0-0-------------|
|-0-0-0-0---3-2---|-2-2-2-------|-2-2-2---------------|
|---------------3-|-3-3-3-------|-3-2-3---------------|

  boy alone...
  B                 G                 D     A   D A     F#
  Q     Q     q     Q     Q     q     Q     q   e q     h       q   q
|-----------------|-----------------|-----------------|-2-------2---2---|
|-4-----4-----4/--|-12----12----12\-|-7-----5---7-----|-2-------2---2---|
4o4-----4-----4/--|-12----12----12\-|-7-----6---7-6\--|-3-------3---3---|
4o4-----4-----4/--|-12----12----12\-|-7-----7---7-7\--|-4-------4---4---|
|-2-----2-----2/--|-10----10----10\-|-5-----7---5-7\--|-4-------4---4---|
|-----------------|-----------------|-------5-----5\--|-2-------2---2---|

  B                 G                 D     A   D A     F#
  Q     Q     q     Q     Q     q     Q     q   e q     h       h
|-----------------|-----------------|-----------------|-2-------2-------|
|-4-----4-----4/--|-12----12----12\-|-7-----5---7-----|-2-------2-------|
|-4-----4-----4/--|-12----12----12\-|-7-----6---7-6\--|-3-------3-------|
|-4-----4-----4/--|-12----12----12\-|-7-----7---7-7\--|-4-------4-------|
|-2-----2-----2/--|-10----10----10\-|-5-----7---5-7\--|-4-------4-------|
|-----------------|-----------------|-------5-----5\--|-2-------2-------|
                   _________________
                  | 1st time through|
  G               | B               | C                 A
  Q     Q     q   | q               | Q     Q     q     Q     Q     q
|-3-----3---------|-7--??????????---|-8-----8-----8---|-5-----5-----5---|
|-3-----3---------|-7---------0-----|-8-----8-----8---|-5-----5-----5---|
|-4-----4---------|-8-----8---------|-9-----9-----9---|-6-----6-----6---|
|-5-----5-----5-/-|-9---9-----------|-10----10----10\-|-7-----7-----7---|
|-5-----5-----5-/-|-9---------------|-10----10----10\-|-7-----7-----7---|
|-3-----3-----3-/-|-7---------------|-8-----8-----8-\-|-5-----5-----5---|
                  | 2nd time through|
                  | Q     Q     q   |
                  |-7-----7-----7---|
                  |-7-----7-----7---|
                  |-8-----8-----8---|
                  |-9-----9-----9---|
                  |-9-----9-----9---|
                  |-7-----7-----7---|

  D                 D#0               E                         C   G
  Q     Q     q     Q     Q     q     Q     Q     q     h       q   q
|-----------------|-----------------|-0-----0---------|-----------------|
|-7-----7-----7---|-7-----7-----7---|-0-----0---------|-12--------------|
|-7-----7-----7---|-8-----8-----8---|-1-----1-----1/--|-13------5-------|
|-7-----7-----7---|-7-----7-----7---|-2-----2-----2/--|-14------5---5---|
|-5-----5-----5---|-6-----6-----6---|-2-----2-----2/--|-14------3---5---|
|-----------------|-----------------|-0-----0-----0---|-------------3---|

                                             All the same...
                                          Am *              Bm  Am
  e e e e e e e   e e e e e e e   e e e e e     Q     e e e q   q
|---------------|---------------|-----------------|-----------------|
|---------------|---------------|---------1-----1-|---------3---1---|
7---------------|---------------4---------2-----2-|---------4---2---|
8---7-----5-4-0-|---5-2---------4---------2-----2-|---------4---2---|
|-0---5-7-------|-3-----3-5-2---|---3-2---0-----0-|---3-2---2---0---|
|---------------|-------------3-|-1-----3---------|-------3---------|


  G     D       C               G               Am
  e e e h       q     q   e q   q       e e e   q     Q   e e e
|-3-3-3-2---------|-------------3---|---------|-----------------|
|-3-3-3-3---------|-------------3---|---------|-1-----1---------|
|-0-0-0-2-------5-|---5---5-5---0---2---------4-2-----2---------|
|-0-0-0-0-------5-|---5---5-5---0---4---------4-2-----2---------|
|-2-2-2---------3-|---3---3-3---2---|---3-2---|-0-----0---3-2---|
|-3-3-3-----------|-------------3---|-------3-|---------------3-|

  Bm  Am    G     D       C                   Am                Bm  Am
  q   q     e e e h       H           e e e   q     Q   e e e   q   q
|---------|-3-3-3-2---------|---------------|-----------------|---------|
|-3---1---|-3-3-3-3---------|---------------|-1-----1---------|-3---1---|
2-4---2---4-0-0-0-2-------5-7---------------4-2-----2---------2-4---2---|
4-4---2---4-0-0-0-0-------5-8---------------4-2-----2---------4-4---2---|
|-2---0---|-2-2-2---------3-|---------2-0---|-0-----0---3-2---|-2---0---|
|---------|-3-3-3-----------|-------------3-|---------------3-|---------|

               _____________________ _________________________________
              | 1st repeat          | 2nd repeat                      |
  G     D     | G     D             | G     D                         |
  e e e Q     | e e e he            | e e e he                        |
|-3-3-3-2-----|-3-3-3-2-------------|-3-3-3-2-----------|-------------|
|-3-3-3-3-----|-3-3-3-3-------------|-3-3-3-3-----------|-------------|
3-0-0-0-2-----5-0-0-0-2------------o5-0-0-0-2-----------3------------o|
4-0-0-0-0-----4-0-0-0-0------------o4-0-0-0-0-----------4------------o|
|-2-2-2-------|-2-2-2---------------|-2-2-2-------------|-------------|
|-3-3-3-------|-3-2-3---------------|-3-3-3-------------|-------------|

  Bridge, repeat 5 times, w/slight reverb.
  Left Channel:  Clean tone w/heavy chorus effect.
  Right Channel:  Clean tone no chorus effect.

  C           Dsus4         C       Dsus4 Em
  e e e e e   e e e e e e   e e e e e e   H
|-----------|-------------|-------------|-------------|
|-----------|-------------|-------------|-------------|
5-------0---6-------0---0-|-------0-----|-------------|
8-----10--108-----12--12--|-----10----12|-14------\---|
|---10------|---12--------|---10--------|-14------\---|
|-8---------|-10----------|-8-------10--|-12------\---|

The keyboard has been arranged for guitar on the 2nd staff,
notes on A string are 8va bassa.  The bass sound is likely
a Moog Taurus Pedal sound (sawtooth wave with a rapid closing
filter).  The right hand melody sounds like a Mini-Moog
(a sawtooth wave with a somewhat rapid attack but with the
filter open relatively wide to achieve a string-like sound).
On the promo video Geddy plays both parts with the same
sound on a Mini-Moog.  It is clear that the bass sound
on the promo-video deviates from the original studio
recording.

  C           Dsus4         C       Dsus4 Em
  e e e e e   e e e e e e   e e e e e e   H
|-----------|-------------|-------------|-------------|
|-----------|-------------|-------------|-------------|
5-------0---6-------0---0-|-------0-----|-------------|
8-----10--108-----12--12--|-----10----12|-14------\---|
|---10------|---12--------|---10--------|-14------\---|
|-8---------|-10----------|-8-------10--|-12------\---|
|                                                     |
| he          H             h       q     H           |
|-----------|-------------|-------------|-------------|
|-----------|-------------|-------------|-------------|
5-----------6-------------|-------------|-------------|
8-----------8-------------|-------------|-------------|
|-3---------|-5-----------|-3-------5---|-7-----------|
|-----------|-------------|-------------|-------------|

  C           Dsus4         C       Dsus4 Em
  e e e e e   e e e e e e   e e e e e e   H
|-----------|-------------|-------------|-------------|
|-----------|-------------|-------------|-------------|
5-------0---6-------0---0-|-------0-----|-------------|
8-----10--108-----12--12--|-----10----12|-14------\---|
|---10------|---12--------|---10--------|-14------\---|
|-8---------|-10----------|-8-------10--|-12------\---|
|                                                     |
| e e e e e   e e e e e e   e e e e e e   e e e e e e |
|-----------|---------5---|-8-7-5-------|-------------|
|-----5-----|-6-5-8-6---8-|-------8-6-8-|-5-6-8-6-5---|
5-5-7---7-5-6-------------|-------------|-----------7-|
8-----------8-------------|-------------|-------------|
|-3---------|-5-----------|-3-------5---|-7-----------|
|-----------|-------------|-------------|-------------|

  C           Dsus4         C       Dsus4 Em
  e e e e e   e e e e e e   e e e e e e   H
|-----------|-------------|-------------|-------------|
|-----------|-------------|-------------|-------------|
5-------0---6-------0---0-|-------0-----|-------------|
8-----10--108-----12--12--|-----10----12|-14------\---|
|---10------|---12--------|---10--------|-14------\---|
|-8---------|-10----------|-8-------10--|-12------\---|
|                                                     |
| e e e e e   e e e e e e   e e e e e e   e e essse e |
|-----------|---------5---|-8-7-5-------|-------------|
|-----5-----|-6-5-8-6---8-|-------8-6-8-|-5-6-86865---|
5-5-7---7-5-6-------------|-------------|-----------7-|
8-----------8-------------|-------------|-------------|
|-3---------|-5-----------|-3-------5---|-7-----------|
|-----------|-------------|-------------|-------------|

  C           Dsus4         C       Dsus4 Em
  e e e e e   e e e e e e   e e e e e e   H
|-----------|-------------|-------------|-------------|
|-----------|-------------|-------------|-------------|
5-------0---6-------0---0-|-------0-----|-------------|
8-----10--108-----12--12--|-----10----12|-14------\---|
|---10------|---12--------|---10--------|-14------\---|
|-8---------|-10----------|-8-------10--|-12------\---|
|                                                     |
|  e e e e e   e e e e e e   e e e e e e  H+          |
|-----------|---------5---|-8-7-5-------|-------------|
|-----5-----|-6-5-8-6---8-|-------8-6-8-|-5-----------|
5-5-7---7-5-6-------------|-------------|-------------|
8-----------8-------------|-------------|-------------|
|-3---------|-5-----------|-3-------5---|-7-----------|
|-----------|-------------|-------------|-------------|

  * Distortion on
  AaddB       B             AaddB       B
  e e e e e   e e e e e e   e e e e e   e e e e e e
|-----------|-------------|-----------|-------------|
|-------0---|---------0---|-------0---|---------0---|
5---------6-6-------8---8-5---------6-6-------8---8-|
8-----7-----8-----9-------8-----7-----8-----9-------|
|---7-------|---9---------|---7-------|---9---------|
|-5---------|-7-----------|-5---------|-7-----------|
|                                                   |
| w+                                                |
|-----------|-------------|-----------|-------------|
|(5)--------|-------------|-----------|-------------|
5-----------6-------------5-----------6-------------|
8-----------8-------------8-----------8-------------|
|-----------|-------------|-----------|-------------|
|-----------|-------------|-----------|-------------|

  C           Dsus4         C           Dsus4
  e e e e e   e e e e e e   e e e e e   e e e e e e
|-----------|-------------|-----------|-------------|
|-----------|-------------|-----------|-------------|
5-------0---6-------0---0-|-------0---|-------0---0-|
8-----10--108-----12--12--|-----10--10|-----12--12--|
|---10------|---12--------|---10------|---12--------|
|-8---------|-10----------|-8---------|-10----------|
|                                                   |
| w+                                                |
|-----------|-------------|-----------|-------------|
|-?---------|-------------|-----------|-------------|
5-----------6-------------5-----------6-------------|
8-----------8-------------8-----------8-------------|
|-----------|-------------|-----------|-------------|
|-----------|-------------|-----------|-------------|

  AaddB       B             AaddB       B
  e e e e e   e e e e e e   e e e e e   e e e e e e
|-----------|-------------|-----------|-------------|
|-------0---|---------0---|-------0---|---------0---|
5---------6-6-------8---8-5---------6-6-------8---8-|
8-----7-----8-----9-------8-----7-----8-----9-------|
|---7-------|---9---------|---7-------|---9---------|
|-5---------|-7-----------|-5---------|-7-----------|
|                                                   |
| w+                                                |
|-----------|-------------|-----------|-------------|
|-5---------|-?-----------|-5---------|-?-----------|
5-----------6-------------5-----------6-------------|
8-----------8-------------8-----------8-------------|
|-----------|-------------|-----------|-------------|
|-----------|-------------|-----------|-------------|

  C           Dsus4         C           Dsus4
  e e e e e   e e e e e e   e e e e e   e e e e e e
|-----------|-------------|-----------|-------------|
|-----------|-------------|-----------|-------------|
5-------0---6-------0---0-|-------0---|-------0---0-|
8-----10--108-----12--12--|-----10--10|-----12--12--|
|---10------|---12--------|---10------|---12--------|
|-8---------|-10----------|-8---------|-10----------|
|                                                   |
| w+                                                |
|-----------|-------------|-----------|-------------|
|-?---------|-?-----------|-5---------|-?-----------|
5-----------6-------------5-----------6-------------|
8-----------8-------------8-----------8-------------|
|-----------|-------------|-----------|-------------|
|-----------|-------------|-----------|-------------|


  C       Dsus4 Em            C           Dsus4
  e e e e e e   H             e e e e e   e e e e e e
|-------------|-------------|-----------|-------------|
|-------------|-------------|-----------|-------------|
6-------0-----|-------------5-------0---6-------0---0-|
8-----10----12|-14------\---8-----10--108-----12--12--|
|---10--------|-14------\---|---10------|---12--------|
|-8-------10--|-12------\---|-8---------|-10----------|
|                                                     |
|                                                     |
|-------------|-------------|-----------|-------------|
|-?-----------|-?-----------|-?---------|-?-----------|
|-------------|-------------5-----------6-------------|
|-------------|-------------8-----------8-------------|
|-------------|-------------|-----------|-------------|
|-------------|-------------|-----------|-------------|

  C       Dsus4 Em
  e e e e e e   H
|-------------|-------------|
|-------------|-------------|
|-------0-----|-------------|
|-----10----12|-14------\---|
|---10--------|-14------\---|
|-8-------10--|-12------\---|
|                           |
|                           |
|-------------|-------------|
|-?-----------|-------------|
|-------------|-------------|
|-------------|-------------|
|-------------|-------------|
|-------------|-------------|
                                             All the same...
                                          Am *              Bm  Am
  e e e e e e e   e e e e e e e   e e e e e     Q     e e e q   q
|---------------|---------------|-----------------|-----------------|
|---------------|---------------|---------1-----1-|---------3---1---|
7---------------|---------------4---------2-----2-|---------4---2---|
8---7-----5-4-0-|---5-2---------4---------2-----2-|---------4---2---|
|-0---5-7-------|-3-----3-5-2---|---3-2---0-----0-|---3-2---2---0---|
|---------------|-------------3-|-1-----3---------|-------3---------|

  G     D       C               G               Am
  e e e h       q     q   e q   q       e e e   q     Q   e e e
|-3-3-3-2---------|-------------3---|---------|-----------------|
|-3-3-3-3---------|-------------3---|---------|-1-----1---------|
|-0-0-0-2-------5-|---5---5-5---0---2---------4-2-----2---------|
|-0-0-0-0-------5-|---5---5-5---0---4---------4-2-----2---------|
|-2-2-2---------3-|---3---3-3---2---|---3-2---|-0-----0---3-2---|
|-3-3-3-----------|-------------3---|-------3-|---------------3-|

  Bm  Am    G     D       C                   Am                Bm  Am
  q   q     e e e h       H           e e e   q     Q   e e e   q   q
|---------|-3-3-3-2---------|---------------|-----------------|---------|
|-3---1---|-3-3-3-3---------|---------------|-1-----1---------|-3---1---|
2-4---2---4-0-0-0-2-------5-7---------------4-2-----2---------2-4---2---|
4-4---2---4-0-0-0-0-------5-8---------------4-2-----2---------4-4---2---|
|-2---0---|-2-2-2---------3-|---------2-0---|-0-----0---3-2---|-2---0---|
|---------|-3-3-3-----------|-------------3-|---------------3-|---------|

  G     D       G     D
  e e e Q       e e e he (w/delay)
|-3-3-3-2-----|-3-3-3-2-------------|
|-3-3-3-3-----|-3-3-3-3-------------|
3-0-0-0-2-----5-0-0-0-2-------------|
4-0-0-0-0-----4-0-0-0-0-------------|
|-2-2-2-------|-2-2-2---------------|
|-3-3-3-------|-3-2-3---------------|



The Trees:



Chord legend for the chords played during the verses:

A5(I) : [x02255]         F#   : [244322]
B5    : [x244xx]         F#5  : [244xxx]
B/A   : [x044xx]         D    : [xx0232]
G     : [320033]         C#m  : [x46654]
G5    : [355xxx]         A    : [577655]
Asus2 : [x0220x]         Bm   : [x24432]
E     : [022100]         A5   : [x022xx]


[Intro]:
    D                   F#m               C#m
e:--2--------0--------|--2--------2-----|--4--------4--------|
B:-----3--------3-----|-----2--------2--|--------5-----5-----|
G:--------2-----------|-----------------|-----6--------------|
D:--0--------------0--|--------4--------|--------------------|
A:--------------------|--------------4--|--4--------------4--|
E:--------------------|--2--------------|--------------------|

    A                 E                 G        A                      
e:--5--------5-----|-----------0-----|--3-----------------|
B:-----5--------5--|--0-----0----0---|-----3-----2--------|
G:--------2--------|-----1-----------|-----------------2--|
D:--------------2--|---------------0-|--------------2-----|
A:--0--------------|-----------------|-------2---0--------|
E:-----------------|--0--------------|--3-----------------|

                        [lyrics enter]
    Bm                   D                       F#m
e:------------2-|-----|--2h3p2--------2--------|--2--------2-----|
B:--3--3------3-|--3~-|---------3--------3-----|-----2--------2--|
G:--4--4--4-----|--4~-|------------2-----------|-----------------|
D:--------------|-----|--0------------------0--|--------4--------|
A:--2--2--0h2-2-|--2~-|------------------------|--------------4--|
E:--------------|-----|------------------------|--2--------------|

   C#m                   A                 E
e:-----------4--------|--5--------5-----|--0--------0-----|
B:--5-----------5-----|-----5--------5--|--0-----0--------|
G:--------6-----------|--------2--------|-----1-----------|
D:-----6--------------|--------------2--|--------------0--|
A:--4--------------4--|--0--------------|-----------------|
E:--------------------|-----------------|--0--------------|

    G        A           Bm                   D                         
e:--3-----------------|-----------2--|-----|--2--------3p2--------|
B:-----3-----2--------|--3--3-----3--|--3~-|--------3-------------|
G:-----------------2--|--4--4--4-----|--4~-|-----2----------------|
D:--------------2-----|--------------|-----|--0--------0----0--x--|
A:-------2---0--------|--2--2--0--2--|--2~-|----------------------|
E:--3-----------------|--------------|-----|----------------------|

    F#m               C#m                  A
e:--2--------2-----|-----------4--------|--5--------5-----|
B:-----2--------2--|--5-----------5-----|-----5--------5--|
G:-----------------|--------6-----------|--------2--------|
D:--------4--------|-----6--------------|--------------2--|
A:--------------4--|--4--------------4--|--0--------------|
E:--2--------------|--------------------|-----------------|

    E                 G        A           Bm                           
e:---------0-------|--3-----------------|------------2--|-----|
B:-0-----0---0-----|-----3-----2--------|--3--3--3---3--|--3~-|
G:----1------------|-----------------2--|--4--4--4------|--4~-|
D:--------------0--|--------------2-----|---------------|-----|
A:-----------------|--------2--0--------|--2--2--0h2-2--|--2~-|
E:-0---------------|--3-----------------|---------------|-----|
                                                                        
    D               A              Bm
e:--2--2h3p2-----|---------------|-----|
B:--3---------3--|--2--2h3p2-----|--3~-|
G:--2------------|--2---------2--|--4~-|
D:--0------------|--2------------|--4~-|
A:---------------|--0------------|--2~-|
E:---------------|---------------|-----|
                                                                        

Progression:

[Intro] x1 /w lyrics:

There is unrest in the forest; there is trouble with the trees.
For the Maples want more sunlight and the Oaks ignore their pleas.

Then:
         F#5
e:-------------------------------------------------------------------|
B:-------------------------------------------------------------------|
G:-------------------------------------------------------------------|
D:-------4-4-4-4--4-4-4-4--4-4-4-4--4-4-4----------------------------|
A:-------4-4-4-4--4-4-4-4--4-4-4-4--4-4-4----------------------------|
E:-------2-2-2-2--2-2-2-2--2-2-2-2--2-2-2--0-------------------------|

         G5
e:-------------------------------------------------------------------|
B:-------------------------------------------------------------------|
G:-------------------------------------------------------------------|
D:-------5-5-5-5--5-5-5-5--5-5-5-5--5-5-5----------------------------|
A:-------5-5-5-5--5-5-5-5--5-5-5-5--5-5-5----------------------------|
E:-------3-3-3-3--3-3-3-3--3-3-3-3--3-3-3--0-------------------------|


Strum each chord [see chord legend above for fingering]:

      A5(I)  A5   A5  B5  B5       B5      G    G  D       D    A5(I) A5(I)
The trouble with the Maples (and they're quite convinced they're right);

      A5(I)  A5             B5   B5 B5           G     D    D  A5(I) A5(I)
They say the Oaks are just too lofty and they grab up all the light.

         A5(I)     A5      B5   B5              G        D    D    A5(I)
But the Oaks can't help their feelings if they like the way they're made.

           F#5 (wallop)                   G5 (wallop)
And they wonder why the Maples can't be happy in their shade.

e:-5~----5--------5~------------|-------------------------------------|
B:-5~----5--------5~---5--------|-2------------2-2-----2-2-----2-2----|
G:-2~----2--2-2-2-2~---2--2-2-2-|-2------------2-2-----2-2-----2-2----|
D:-2~----2--2-2-2-2~---2--2-2-2-|-2--2--2---2--2-2--2--2-2--2--2-2----|
A:-0~----0--0-0-0-0~---0--0-0-0-|-0--0--0---x-------x-------x---------|
E:------------------------------|-----------3-------2-------0---------|

            D  D D       F#   F#          C#m C#m C#m C#m   A A A A
There is trouble in the forest, and the creatures all have fled,

                          (at the end of this line play some pick slides)
        E E E E E E     G  G  G   A5 A5    Bm    Bm  B/A    Bm    Bm
as the Maples scream "Oppression!" and the Oaks just shake their heads.

 (Repeat D-F#-C#m-A chord progression/pattern)

e:--0-0-0--0-0-0---3-3-3---------------------------2-----------------|
B:--0-0-0--0-0-0---3-3-3-------------3-3-3--3--3---3---3-3-3-3-3-3-3-|
G:--1-1-1--1-1-1---0-0-0---2-2--2----4-4-4--4--4---4---4-4-4-4-4-4-4-|etc
D:--2-2-2--2-2-2---0-0-0---2-2--2----4-4-4--4--4---4---4-4-4-4-4-4-4-|
A:--2-2-2--2-2-2---2-2-2---0-0--0----2-2-2--2--0---2---2-2-2-2-2-2-2-|
E:--0-0-0--0-0-0---3-3-3---------------------------------------------|

[Riff 2] - with flanger added

   Bm                                            A
e:--------------------------------------------|----------------------|
B:--------------------------------------------|--------2---2---------|
G:----4---4--------4--------4----4-------4----|------2---2-------2---|
D:------4--------4---4---------4-------4---4--|----2-----------2-----|
A:-2----------2----------2-----------2--------|--0-------------------|
E:--------------------------------------------|----------------------|

                       F#7(addB)                     A
e:------------------|-----------------------------|---------0--------|
B:--------2------2--|---------0--------------0----|------------0-----|
G:------2------2----|-----------3---------------3-|-------6------6---|
D:----2------2------|------4--------------4-------|------------------|
A:--0---------------|----4--------------4---------|----7-------------|
E:------------------|--2-------------2------------|--5---------------|

                       F#7(addB)
e:------------0------|------------0-----2-------------------0----2---|
B:--------------0----|------------------------0----------------------|
G:---------6------6--|--------3--------------------------3-----------|
D:------7------------|---------------4-----4------------------4------|
A:---7---------------|-----4--------------------------4------------4-|
E:-------------------|--2--------------------------2-----------------|

   D                                               F
e:--------0----10---------------0-----10--------|-----------1--------|
B:------7------------7--------7--------------7--|--------------1-----|
G:----7---------------------7-------------------|--------2-----------|
D:--0-------0-----0-------0--------0------0-----|--------------------|
A:----------------------------------------------|-----3--------------|
E:----------------------------------------------|--1-----------------|

                  A                                     E
e:----------1---|--------0------------------0---------|-0-------0----|
B:------------1-|-0----0-----0-----------2-------0----|-0--0---------|
G:-------2------|-2--2-----2-----2------------2-------|-1------------|
D:--------------|-2------------2-------2--------------|-2----2----2--|
A:----3---------|-0------------------0-------------0--|-2---------2--|
E:-1------------|-------------------------------------|-0------------|

e:---------------------0---------------------------------------------|
B:--0-----------------------0----------------------------------------|
G:--------1---------1------------0-----------------------------------|
D:-----2----------2------2-----2-------------------------------------|
A:-----2-------------------------------------------------------------|
E:-----0-------0-----------------------------------------------------|

[Riff 3] - This is in 5/4 (I HATE 5/4!)

e:-------------------------------|-----------------------------------|
B:-------0--------------0--------|-------0---------------------------|
G:-----0--------0-----0--------0-|-----0-------0--------0-----0------|
D:--12------11-----14------11----|--12------11----12-14----11--------|
A:-------------------------------|-----------------------------------|
E:-------------------------------|-----------------------------------|

        This is the pattern of measures and what chords are being played.
Each set of braces represents a measure. [Riff 3] is played once alone,
then along with these chords in this fashion. Remember this is 5/4.

 A5  (A5) A5 (A5) A5 (A5) A5  B5  A5  D5  A5  B5  A5  D5
|---|---|---|---|---|---|---|---|---|---|---|---|---|---|
          *       *       *   *   *   *  *** *** *** ***

 *  = Neil hits a crash cymbal
*** = Neil hits the ride & crash

Geddy repeats this 2 times; [Riff 3] is repeated 4 times along with it.

G:--------------------|------------------|--------------|--------------|
D:o-------------------|------------------|--------------|--0-0-0-0----o|
A:o-0--0--0--0--------|---2--2--2--2-----|--0-0-0-0-----|-------------o|
E:--------------2--3--|--------------2-3-|----------2-3-|----------2-3-|

[Riff 3] is played 4 times along with the solo:

[Guitar Solo] - Also in 5/4 time

e:-------------------------------------------------------------------|
B:-------------------------------------------------------------------|
G:-(16)r14~--------------7---6h7p6p0---0--2-[4]~~~---4--2h4p2p0--[9]~|
D:-------------------------------------------------------------------|
A:----------0----2~~-------------------------------------------------|
E:-------------------------------------------------------------------|

e:-------------------------------------------------------------------|
B:-15-[14h15p14]----------------12-------------(12)------------------|
G:---------------14-12---14--12----14-12--14b16----14b16-14~---11----|
D:-------------------------------------------------------------------|
A:-------------------------------------------------------------------|
E:-------------------------------------------------------------------|

                                                          6/4 time
e:------------------------------------------------------|------------|
B:------------------------------------------------------|------------|
G:-12b14------12--11h12p11s9--11~----6-7-9--7p6h7p6-4-6-|-7~--6h7h9--|
D:------------------------------------------------------|------------|
A:------------------------------------------------------|------------|
E:------------------------------------------------------|------------|

e:-------------------------------------------------------------------|
B:-------------------------------------------------------------------|
G:--6h7p6-4h6p4-2h4p2p0-2h4p2p0-2h4p2p0-2----------------------------|
D:-------------------------------------------------------------------|
A:-------------------------------------------------------------------|
E:-------------------------------------------------------------------|

(For reference: [Riff 3] is played 16 times total.)

[Riff 4]
    G                             G               A
e:--7--7---7--7-----7--7---7--7\--2--2--2--2--2----------------------|
B:--8--8---8--8-----8--8---8--8\--3--3--3--3--3---2------------------|
G:--7--7---7--7-----7--7---7--7\--2--2--2--2--2---2--2---------------|
D:--0------0--------0-------------0-----0-----0---2--2--------0-2-4p0|
A:------------------------------------------------0--0---2--4--------|
E:-------------------------------------------------------------------|
                                                       PM----------|

e:--7--7--7--7-----7--7---7--7\--2--2--2--2--2-----------------------|
B:--8--8--8--8-----8--8---8--8\--3--3--3--3--3---2-------------------|
G:--7--7--7--7-----7--7---7--7\--2--2--2--2--2---2--2---4--2--0------|
D:--0-----0--------0-------------0-----0-----0---2--2-----------4p2p0|
A:-----------------------------------------------0--0----------------|
E:-------------------------------------------------------------------|

e:--7--7--7--7-----7--7---7--7\--2--2--2--2--2-----------------------|
B:--8--8--8--8-----8--8---8--8\--3--3--3--3--3--2------8--7--5-------|
G:--7--7--7--7-----7--7---7--7\--2--2--2--2--2--2--2-----------7--6--|
D:--0-----0--------0-------------0-----0-----0--2--2-----------------|
A:----------------------------------------------0--0-----------------|
E:-------------------------------------------------------------------|
                                                     PM------------|

e:-7--7--7--7-----7--7---7--7\--2--2--2--2--2------------------------|
B:-8--8--8--8-----8--8---8--8\--3--3--3--3--3--2---------------------|
G:-7--7--7--7-----7--7---7--7\--2--2--2--2--2--2--2------------------|
D:-0-----0--------0-------------0-----0-----0--2--2--------0--2------|
A:---------------------------------------------0--0--2--4--------0---|
E:-------------------------------------------------------------------|

[Riff 5]
   Bm   B5 Bm/A D5   A5    B5      F#
e:-------------------------------------------------------------------|
B:-3--3---------3-3--------------------------------------------------|
G:-4--4--4--4---2-2--2-2---4-4-4---3---3---3---2-2-------------------|
D:-4--4--4--4---0-0--2-2---4-4-4---4---4---4---2-2-------------------|
A:-2--2--2--0--------0-0---2-2-2---4---4---4---0-0-------------------|
E:---------------------------------2---2---2-------------------------|

[Strum as above]:

       A5(I)  A5    B5   B5 B5     G      D  D  A5(I) A5(I)
So the Maples formed a union and demanded equal rights.

      A5       A5     B5   B5           G    G    D    D   A5(I)
"The Oaks are just too greedy, we will make them give us light!"

            A5(I)  A5     B5  B5         B5    G       D  D  A5(I)
Now there's no more Oak oppression, for they passed a noble law.

Outro:

   F#5                             G5                            A   Asus2
e:----------------------------------------------------------------------|
B:---------------------------------------------------------------2-2-0~-|
G:---------------------------------------------------------------2-2-2~-|
D:-4-4-4-4-4-4-4-4-4-4-4-4-4-4-4-4-5-5-5-5-5-5-5-5-5-5-5-5-5-5-5-2-2-2~-|
A:-4-4-4-4-4-4-4-4-4-4-4-4-4-4-4-4-5-5-5-5-5-5-5-5-5-5-5-5-5-5-5-0-0-0~-|
E:-2-2-2-2-2-2-2-2-2-2-2-2-2-2-2-2-3-3-3-3-3-3-3-3-3-3-3-3-3-3-3--------|

         F#5 (wallop)                G5 (wallop)  A A  Asus2
And the trees are all kept equal by hatchet, axe, and saw.



La Villa Strangiato:



Song progression:

[Intro]
                        E5  (B7)           E5   (B7)        E5
e:-----2--|-5------|-2------|-5~------|-2------|-5------|-2--0---|
B:--------|-----4--|----5---|------4--|----5---|-5---4--|-4--5---|
G:--------|--------|----4---|---------|----4---|-----4--|----4---|
D:--------|--------|----2---|---------|----2---|--------|----2---|
A:--------|--------|----2---|---------|----2---|--------|----2---|
E:--------|--------|--------|---------|--------|--------|----0---|

           (faster)
e:-0---0-1p0---0-3p1p0-0-------------------------------------|
B:---3-------3---------0-3-1p0-0h1-3p1p0---------------------|
G:---------------------------------------2-[0]h2-2-2-1-2-4p2-|
D:-----------------------------------------------------------|
A:-----------------------------------------------------------|
E:-----------------------------------------------------------|

e:-----------------------------------------------|
B:-----------------------------------------------|
G:-----------------------------------------------|
D:-3-3-0-0-3-3-5-5-------------------0-----------|
A:-----------------0-0-3-3-2-0-2-3-3---3p2-2-----|
E:-------------------------------------------3-3-|

   F
e:-1~~------------------|-(1)----|
B:-1~~------------------|-(1)----|
G:-2~~------------------|-(2)----|
D:-3~~------------------|-(3)----|
A:-3~~------------------|-(3)----|
E:-1~~------------------|-(1)----|
 |                      |        |
 |                      |        |
 | C9                   |        |
e:----------8~----------|--------|
B:-------------8~-------|--------|
G:-------------------0--|---%----|
D:-------0--------0-----|--------|
A:----7-----------------|--------|
E:-8--------------------|--------|
  let ring throughout

        Repeat C9 figure 58 times. From Westmeyer's tab:

        During this time three synthesizers and a glockenspiel enter. They
are arranged for guitar below. Synth I and the glockenspiel are on the same
tab, as well as synthesizers II and III. The glockenspiel tab is the part
with the much higher notes; Synth III is also much higher than synth II
(synth II sounds like an 8va bassa). The following tab starts on the eighth
measure after the above tab.

e:---------|-----22--|-20----------|-(20)-------|----------|----------|
B:---------|---------|-------------|--------15--|-13-------|-(13)-----|
G:---------|---------|-------------|------------|----------|----------|
D:------7--|-5-------|-(5)---------|-(5)--------|-(5)------|----------|
A:---------|---------|-------------|------------|-------5--|-3--------|
E:---------|---------|-------------|------------|----------|----------|
 |         |         |             |            |          |          |
 |         |         |             |            |          |          |
e:---------|---------|-------------|------------|----------|----------|
B:---------|---------|-------------|------------|----------|----------|
G:---------|---------|-----5-------|------------|----------|----------|
D:---------|---------|--------3-5--|------------|----------|----------|
A:---------|---------|-3-----------|-3----------|-(3)------|-(3)------|
E:---------|---------|-------------|------------|----------|----------|

e:--------------------|-------------------|------20--15-17-----|
B:--------------------|-------------------|--------------------|
G:--------------------|-------------------|-17-----------------|
D:--------------------|-------------------|-----------------7--|
A:-(3)----------------|-(3)---------------|-(3)----------------|
E:--------------------|-------------------|--------------------|
 |                    |                   |                    |
 |                    |                   |                    |
e:--------------------|----12-------------|--------------------|
B:-------------13p12h-|-13----15-13-------|--------------------|
G:-----5--------------|--------------12---|-(12)---------------|
D:--------3-5---------|-------------------|--------------------|
A:-3------------------|-3-----------------|-(3)----------------|
E:--------------------|-------------------|--------------------|

    The glockenspiel exits during this next sequence of measures; the
other three instruments remain.

e:---------|---------|---------|----------|--------------|
B:---------|---------|---------|----------|--------------|
G:-17------|-(17)----|---------|----------|--------------|
D:-5-------|-(5)-----|-(5)-----|-(5)------|--------------|
A:---------|---------|---------|-------5--|-3------------|
E:---------|---------|---------|----------|--------------|
 |         |         |         |          |              |
 |         |         |         |          |              |
e:---------|---------|---------|----------|--------------|
B:---------|---------|---------|----------|-------13p12h-|
G:-(12)----|-(12)----|---------|----------|--------------|
D:---------|---------|---------|----------|--------------|
A:-(3)-----|-(3)-----|-(3)-----|-(3)------|-(3)----------|
E:---------|---------|---------|----------|--------------|

e:------------------|---------|---------------|--------------|
B:------------------|---------|---------------|--------------|
G:------------------|---------|---------------|--------------|
D:------------------|---------|---------------|--------------|
A:-(3)--------------|-(3)-----|-(3)-----------|-(3)----------|
E:------------------|---------|---------------|--------------|
 |                  |         |               |              |
 |                  |         |               |              |
e:----12------------|---------|---------------|--------------|
B:-13----15-13------|---------|---------------|-------13p12h-|
G:-------------12---|-(12)----|-(12)--5-------|-(12)---------|
D:------------------|---------|----------3-5--|--------------|
A:-(3)--------------|-(3)-----|-(3)-----------|-3------------|
E:------------------|---------|---------------|--------------|

   Synth III exits in the next sequence of tab.

e:---------------|--------|--------|--------|--------|---------|-------|
B:---------------|--------|--------|--------|--------|---------|-------|
G:---------------|--------|--------|--------|--------|---------|-------|
D:---------------|--------|--------|--------|--------|------7--|-5-----|
A:-(3)-----------|-(3)----|-(3)----|-(3)----|-(3)----|-(3)-----|-------|
E:---------------|--------|--------|--------|--------|---------|-------|
 |               |        |        |        |        |         |       |
 |               |        |        |        |        |         |       |
e:----12---------|--------|--------|--------|--------|---------|-------|
B:-13----15-13---|-(13)---|-(13)---|-(13)---|--------|---------|-------|
G:---------------|--------|--------|--------|--------|---------|-------|
D:---------------|--------|--------|--------|--------|---------|-------|
A:-(3)-----------|-(3)----|-(3)----|-(3)----|-(3)----|-(3)-----|-5-----|
E:---------------|--------|--------|--------|--------|---------|-------|

e:---------|-------|-------|-------|-------|-------|-------|
B:---------|-------|-------|-------|-------|-------|-------|
G:---------|-------|-------|-------|-------|-------|-------|
D:-(5)-----|-(5)---|-(5)---|-(5)---|-(5)---|-(5)---|-(5)---|
A:---------|-------|-------|-------|-------|-------|-------|
E:---------|-------|-------|-------|-------|-------|-------|
 |         |       |       |       |       |       |       |
 |         |       |       |       |       |       |       |
e:---------|-------|-------|-------|-------|-------|-------|
B:---------|-------|-------|-------|-------|-------|-------|
G:---------|-------|-------|-------|-------|-------|-------|
D:-(5)--2--|-------|-------|-5-----|-(5)---|-------|-------|
A:---------|-3-----|-(3)---|-------|-------|-3-----|-(3)---|
E:---------|-------|-------|-------|-------|-------|-------|

        Synths I and II sustain final notes for 16 measures, then exit. The
doubled guitars with distortion enter at approx. 1:59 of the song.

     C
e:-------------|-------------|-------------|---------------|
B:---5--5--5~--|---5--5--5~--|---5--5--5~--|---5--5--5~~\--|
G:---5--5--5~--|---5--5--5~--|---5--5--5~--|---5--5--5~~\--|
D:---5--5--5~--|---5--5--5~--|---5--5--5~--|---5--5--5~~\--|
A:---3--3--3~--|---3--3--3~--|---3--3--3~--|---3--3--3~~\--|
E:-------------|-------------|-------------|---------------|

                                                    A            D  E  D
e:-----------------------|-----------------------|-------------|----------|
B:--2--2--2-2p0----------|--2--2--2-2p0----------|--2---2--2-2-|-7--9--7\-|
G:o-2--2--2-----2p0-----o|o-2--2--2-----2p0-----o|--2---2--2-2-|-7--9--7\-|
D:o-2--2--2---------2p0-o|o-2--2--2---------2p0-o|--2---2--2-2-|-7--9--7\-|
A:--0--0--0--------------|--0--0--0--------------|--0---0--0-0-|-5--7--5\-|
E:-----------------------|-----------------------|-------------|----------|

                            A            D  E  D
e:-----------------------|-------------|----------|-----------------------|
B:--2--2--2-2p0----------|--2---2--2-2-|-7--9--7\-|--2--2--2-2p0----------|
G:o-2--2--2-----2p0-----o|--2---2--2-2-|-7--9--7\-|o-2--2--2-----2p0-----o|
D:o-2--2--2---------2p0-o|--2---2--2-2-|-7--9--7\-|o-2--2--2---------2p0-o|
A:--0--0--0--------------|--0---0--0-0-|-5--7--5\-|--0--0--0--------------|
E:-----------------------|-------------|----------|-----------------------|

   C                                     F#
e:---------------------|---------------|--------------|--------------|
B:---------------------|---------------|--------------|--------------|
G:---------------------|------7--------|--------11----|-----------11-|
D:-3s5--3-5s7--5--9--7-|-10-9---10-9-7-|-----11----11-|--------11----|
A:---------------------|---------------|-9~-----------|-9~---9-------|
E:---------------------|---------------|--------------|----9---------|

   C                                     F#
e:---------------------|---------------|--------------|--------------|
B:---------------------|---------------|--------------|--------------|
G:---------------------|------7--------|--------------|--------------|
D:-3s5--3-5s7--5--9--7-|-10-9---10-9-7-|--------------|--------------|
A:---------------------|---------------|-9~-----------|------9-------|
E:---------------------|---------------|----9~~s2~----|--9~~---9\----|

                                                    A            D  E  D
e:-----------------------|-----------------------|-------------|----------|
B:--2--2--2-2p0----------|--2--2--2-2p0----------|--2---2--2-2-|-7--9--7\-|
G:o-2--2--2-----2p0-----o|o-2--2--2-----2p0-----o|--2---2--2-2-|-7--9--7\-|
D:o-2--2--2---------2p0-o|o-2--2--2---------2p0-o|--2---2--2-2-|-7--9--7\-|
A:--0--0--0--------------|--0--0--0--------------|--0---0--0-0-|-5--7--5\-|
E:-----------------------|-----------------------|-------------|----------|

                            A            D  E  D
e:-----------------------|-------------|----------|-----------------------|
B:--2--2--2-2p0----------|--2---2--2-2-|-7--9--7\-|--2--2--2-2p0----------|
G:o-2--2--2-----2p0-----o|--2---2--2-2-|-7--9--7\-|o-2--2--2-----2p0-----o|
D:o-2--2--2---------2p0-o|--2---2--2-2-|-7--9--7\-|o-2--2--2---------2p0-o|
A:--0--0--0--------------|--0---0--0-0-|-5--7--5\-|--0--0--0--------------|
E:-----------------------|-------------|----------|-----------------------|

   C                                     F#
e:---------------------|---------------|--------------|--------------|
B:---------------------|---------------|--------------|--------------|
G:---------------------|------7--------|--------11----|-----------11-|
D:-3s5--3-5s7--5--9--7-|-10-9---10-9-7-|-----11----11-|--------11----|
A:---------------------|---------------|-9~-----------|-9~---9-------|
E:---------------------|---------------|--------------|----9---------|

   C                                     F#
e:---------------------|---------------|--------------|--------------|
B:---------------------|---------------|--------------|--------------|
G:---------------------|------7--------|--------------|--------------|
D:-3s5--3-5s7--5--9--7-|-10-9---10-9-7-|--------------|--------------|
A:---------------------|---------------|-9~-----------|------9-------|
E:---------------------|---------------|----9~~s2~----|--9~~---9\----|

e:-----------------------|-----------------------|
B:--2--2--2-2p0----------|--2--2--2-2p0----------|
G:o-2--2--2-----2p0-----o|o-2--2--2-----2p0-----o|
D:o-2--2--2---------2p0-o|o-2--2--2---------2p0-o|
A:--0--0--0--------------|--0--0--0--------------|
E:-----------------------|-----------------------|

Half-time in 7/8:
    F               A               F
e:--1~---|--1~---|--5~---|--5~---|--1~---|--1~---|--5~~~---|
B:--1~---|--1~---|--2~---|--2~---|--1~---|--1~---|--2~~~---|
G:--2~---|--2~---|--2~---|--2~---|--2~---|--2~---|--2~~~---|
D:--3~---|--3~---|--2~---|--2~---|--3~---|--3~---|--2~~~---|
A:--3~---|--3~---|--0~---|--0~---|--3~---|--3~---|--0~~~---|
E:--1~---|--1~---|-------|-------|--1~---|--1~---|---------|

[Guitar Solo 1]

        (The first two notes are ghost bends - bend the 7th fret up a whole
step, strike the note, release the string slowly while swelling the volume.
Then bend the 10th fret up a whole step, strike and release slowly while
increasing the volume.)

  (F)                 (Am)
e:--------|----------|---------|----------|
B:--------|----------|-12r10~~-|-(10)-----|
G:-9r7~~--|-(7)------|---------|----------|
D:--------|----------|---------|----------|
A:--------|----------|---------|----------|
E:--------|----------|---------|----------|

(All of these are volume swells)
  (F)                            (Am)
e:------------------|-----------|--------------10-8-7-|----8-7----------|
B:-6-8-5-----5------|-----------|---------10-8--------|-10-----10-8-10~-|
G:-------7-5---7-4~-|-(4)---7-5-|---------------------|-----------------|
D:------------------|-----------|-7-(7)~--------------|-----------------|
A:------------------|-----------|---------------------|-----------------|
E:------------------|-----------|---------------------|-----------------|

  (F)
e:-----------------------------------|----------|
B:-----------------------------------|----------|
G:---5-7-7b9r7p5-7p5---5-7-7b9-7-5s9-|-(9)~-----|
D:-7-----------------7---------------|----------|
A:-----------------------------------|----------|
E:-----------------------------------|----------|

  (Am)
e:-8r7-7-5---5---------------|---------------------|
B:---------8---8-5-----8-5---|---8-5---------------|
G:-----------------7-5-----7-|-5-----7-5-4-5-4-----|
D:---------------------------|-----------------7~--|
A:---------------------------|---------------------|
E:---------------------------|---------------------|

  (F)
e:---------7-7-7-7-7-------------|-------13-13-12-15-13-12----12-|
B:---10-10-----------8-8-10------|-------------------------15----|
G:-9------------------------9-9~-|-(9)~--------------------------|
D:-------------------------------|-------------------------------|
A:-------------------------------|-------------------------------|
E:-------------------------------|-------------------------------|

  (Am)
e:------------------12-12-12-12----|--------------------|
B:-15-13-12-15-13~--------------15-|-12-13--------------|
G:---------------------------------|-------12~~h14~-----|
D:---------------------------------|--------------------|
A:---------------------------------|--------------------|
E:---------------------------------|--------------------|

  (F)
e:---------------------------------------|--------17b19~-|
B:-15b17~~-15b17r15-15-13-12-13p12----12-|---------------|
G:---------------------------------14----|-14~-----------|
D:---------------------------------------|---------------|
A:---------------------------------------|---------------|
E:---------------------------------------|---------------|

   (Am)
e:-----17b19~-12-13-15-12h13p12----|-12--------------------------------------|
B:------------------------------15-|----15b17~~~-15b17r15-[15]-12-13-12----12|
G:---------------------------------|------------------------------------14---|
D:---------------------------------|-----------------------------------------|
A:---------------------------------|-----------------------------------------|
E:---------------------------------|-----------------------------------------|

  (F)
e:-------------------------------|--------------------|
B:-------------------------------|--------------------|
G:-14-12-14b16-14b16-14~-14b16~~-|----------5-7-7b9r7-|
D:-------------------------------|--------7-----------|
A:-------------------------------|--------------------|
E:-------------------------------|--------------------|

  (Am)
e:-------------------------|-----------------------------------|
B:-------------------------|-----------------------------------|
G:-7-5-4-5-4~--0-4-5-4-2-4-|-2h4p2p0-2---0-0-0------x-12b14~---|
D:-------------------------|-----------------------------------|
A:-------------------------|-----------X\------X\--------------|
E:-------------------------|-----------X\------X\--------------|

  (F)
e:-------------------------------------------|
B:-------------------------------------------|
G:-12b14-12b14-12b14-12b14-12b14-12b13-12b14-|
D:-------------------------------------------|
A:-------------------------------------------|
E:-------------------------------------------|

                               (faster)
e:-------------------------------------------------------------|
B:---------------------------------------8-8-8-8-8-8-10-10p8---|
G:-12-10-9h10p9----9------------7s9-9-9----------------------9-|
D:--------------12---12~--(12)---------------------------------|
A:-------------------------------------------------------------|
E:-------------------------------------------------------------|

  (Am)
e:-------------------------------------------------------------|
B:----------------------------------------------10-11p10-12p10-|
G:-12p9-10p9----9----------------9h10p9-10-9-11----------------|
D:-----------12---12p10----10-12-------------------------------|
A:----------------------12-------------------------------------|
E:-------------------------------------------------------------|

e:----------------------------------------------|
B:-13-13-12-10----13------------10-12-12-13-12--|
G:-------------12----12-9--9s11-----------------|
D:----------------------------------------------|
A:----------------------------------------------|
E:----------------------------------------------|

e:----------------------12-12-12----12-13-13-13-12-13-15-15-15--|
B:-12-13-13-15-15-13-15----------15-----------------------------|
G:--------------------------------------------------------------|
D:--------------------------------------------------------------|
A:--------------------------------------------------------------|
E:--------------------------------------------------------------|

                              (F)
e:-13-15-17-17-17b19-17b19~-|-17b19-17b19~-17-12h13p12----13----------|
B:--------------------------|--------------------------15----15-13p12-|
G:--------------------------|-----------------------------------------|
D:--------------------------|-----------------------------------------|
A:--------------------------|-----------------------------------------|
E:--------------------------|-----------------------------------------|

e:-------------------------------------------------|
B:----12------------5-5-5-5-6-8-6p5---5------------|
G:-14----14---(14)\-----------------7---7-5-4-5~-4-|
D:-------------------------------------------------|
A:-------------------------------------------------|
E:-------------------------------------------------|

 (Am)  (faster)
e:---------------------5-7p5-7-8-8p7p5---5---------------------------------|
B:-----5-6p5---5-7-8-8-----------------8---8-8-5-6p5---5-5-5-6-8-5---------|
G:-6-7-------7---------------------------------------7-------------7p0-7-5-|
D:-------------------------------------------------------------------------|
A:-------------------------------------------------------------------------|
E:-------------------------------------------------------------------------|

e:--------------------------------------------------------------------|
B:--------------------------------------------------------------------|
G:-4h5p4---7-------------------------------0--------------------------|
D:-------7---7-7-5-3-3-3-3p2-----------------0h3p2---3-3p2-3-2--------|
A:---------------------------3-3-2-2-0-2-3---------3-----------3------|
E:---------------------------------------------------------------0s8--|

[End Guitar Solo 1]

PM throughout
  (F)                              (Am)
e:-------------------------------|-------------------------------|
B:-------------------------------|-------------------------------|
G:o-----------------------------o|o-----------------------------o|
D:o-----5-----5-------5-----5---o|o-----------------------------o|
A:----7-----7---5---7-----7---5--|------7-----7-5-----7-----7-5--|
E:--8-----8-------8-----8--------|--5-8---5-8-----5-8---5-8------|

  (F)                              (Am)
e:-------------------------------|-------------------------------|
B:-------------------------------|-------------------------------|
G:o-----------------------------o|o-----------------------------o|
D:o-----5-----5-------5-----5---o|o-----------------------------o|
A:----7-----7---5---7-----7---5--|------7-----7-5-----7-----7-5--|
E:--8-----8-------8-----8--------|--5-8---5-8-----5-8---5-8------|

                                  End PM
  (F)                              (Am)
e:-------------------------------|-------------------------------|
B:-------------------------------|-------------------------------|
G:o-----------------------------o|o-----------------------------o|
D:o-----5-----5-------5-----5---o|o-----------------------------o|
A:----7-----7---5---7-----7---5--|------7-----7-5-----7-----7-5--|
E:--8-----8-------8-----8--------|--5-8---5-8-----5-8---5-8------|

 (Am)
e:--------------------|--------------------|
B:--------------------|--------------------|
G:o------------------o|o------------------o|
D:o------------------o|o------------------o|
A:----7-6----5p3---3--|----7-6----5p3---3--|
E:--5------------5----|--5------------5----|

e:---------------------|---------------------|----------------------|
B:---------------------|---------------------|----------------------|
G:o-------------------o|---------------------|----------------------|
D:o-------------------o|---------------------|----------------------|
A:----7-6---5p3---3-2--|----7-6---5p3---3-2--|--6h7p6p5\3---3-------|
E:--5-----------5------|--5-----------5------|------------5---5\----|

e:-------------------|-----------------|-------------------|-----------------|
B:-------------------|-----------------|-------------------|-----------------|
G:---9-8-7p5---5-7b9~|---9-8-7p5---5-4~|---9-8-7p5---5-7b9~|-8b9r8s7p5---5---|
D:-7---------7-------|-7---------7-----|-7---------7-------|-----------7---7\|
A:-------------------|-----------------|-------------------|-----------------|
E:-------------------|-----------------|-------------------|-----------------|

[Guitar tacet for 2 measures]

With chorus throughout:
   A   Ab  G   F# F  E   Eb D  C# C B Bb  A  G           C
e:---------------------|----------------|----3--|-(3)--|-------|------|
B:-14--13--12--11-10-9-|-8--7--6--5-4-3-|-2--3--|-(3)--|-5--5--|-(5)--|
G:-14--13--12--11-10-9-|-8--7--6--5-4-3-|-2--4--|-(4)--|-5--5--|-(5)--|
D:-14--13--12--11-10-9-|-8--7--6--5-4-3-|-2--5--|-(5)--|-5--5--|-(5)--|
A:-12--11--10--9--8--7-|-6--5--4--3-2-1-|-0--5--|-(5)--|-3--3--|-(3)--|
E:---------------------|----------------|----3--|-(3)--|-3--3--|-(3)--|

    A  Ab G  F# F  E   D  G A   G
e:-------------------|--------|---|-------------|---------------|--------|
B:-14-13-12--11-10-9-|-7------|---|-------------|---------------|--------|
G:-14-13-12--11-10-9-|-7--4/6-|-4-|-------------|-----------5~--|--------|
D:-14-13-12--11-10-9-|-7--5/7-|-5-|-------------|-----5--7------|-7------|
A:-12-11-10--9--8--7-|-5--5/7-|-5-|-------3--5--|-7~------------|--------|
E:-------------------|----3/5-|-3-|-3--5--------|---------------|--------|

            C         A        G               C         E        A
e:------|----------|--------|--3-3-----3-3--|------------------------|
B:------|---5------|--2-----|--3-3-----3-3--|--5--5--5/--9--9-9\--2--|
G:------|---5------|--2-----|--4-4-----4-4--|--5--5--5/--9--9-9\--2--|
D:------|---5------|--2-----|--5-5-----5-5--|--5--5--5/--9--9-9\--2--|
A:------|---3------|--0-----|--5-5-----5-5--|--3--3--3/--7--7-7\--0--|
E:------|---3------|--------|--3-3-----3-3--|------------------------|

[Guitar Solo 2]

Play with slapback echo (~50 ms)
  (C)                                     (F#)
e:-----------------|---------------------|-----------------|
B:-7b8r7b9b10------|---------------------|-------7-7-7-----|
G:-----------------|--8--8-8-8-8~--------|-------------6~--|
D:-----------------|---------------------|--4--4-----------|
A:-----------------|---------------------|-----------------|
E:-----------------|---------------------|-----------------|

                     (C)
e:------------------|--------------------------------|-------------------|
B:-------7-7--------|-x-13-13-13b-13b14-13b15-13b16--|----13b17---\10----|
G:-----------6~--x--|-x------------------------------|-------------------|
D:-4-4-4------------|--------------------------------|-------------------|
A:------------------|--------------------------------|----------------9~-|
E:------------------|--------------------------------|-------------------|

   (F#)           (Fret noise)
e:-------------------------|-------------------|
B:-------------------------|-----------3-------|
G:---------------------*---|-x-3-3-3-3---3-3~--|
D:---------------------*---|-------------------|
A:-(9)~-(9)~\--------------|-------------------|
E:------------2~--2~-------|-------------------|

  (C)
e:-----------------------------------------------------------------|
B:----------------------8h11p8----8-11-11b12b13b14b15~-11-------[5]|
G:[7]-7-8h10p8---8h10p8--------10----------------------------------|
D:-------------0---------------------------------------------------|
A:---------------------------------------------------------x\--x/--|
E:---------------------------------------------------------x\--x/--|

 (F#)                                   (C)
e:------------------------|-------------------------------|
B:-5-5b8---------7--------|------11-----------------------|
G:------------------------|---------11b14~~~~r11---8b9----|
D:-------4-4~-4----4-4-4~-|-------------------------------|
A:------------------------|-------------------------------|
E:------------------------|-------------------------------|

                          (F#)
e:-----------------------|----------------------|
B:---11-10-8----8--------|----------------------|
G:-x---------10---10-8-8-|-8-----11-11-11----11-|
D:-----------------------|----------------11----|
A:-----------------------|---9~-----------------|
E:-----------------------|----------------------|

                             (C)
e:--------------------------|-----------------|----------------------|
B:----------11~s18----------|-----------------|----------------------|
G:-11----11-----------------|-------------7---|--------7-7-----------|
D:----11--------------------|--4s5-3-7-5----9-|-10-9-x-----10-9-7----|
A:----------------------x\--|-----------------|-------------------9~-|
E:----------------------x\--|-----------------|----------------------|

  (F#)                                (C)
e:------------------|----------------|---------------------|
B:------------------|----------11----|---------------------|
G:------------11----|-9~-----9-------|---------------------|
D:---------11----11-|-----11-------5-|-5-3-7-6-7-5-7-9-9-7-|
A:------------------|----------------|---------------------|
E:-------0----------|----------------|---------------------|

                             (F#)
e:--------------------------|---------------|----------------|
B:--------------------------|---------------|-------2~~------|
G:---------7----------------|---------------|-----3----------|
D:-10-9-10---10-9-7---7-9-7-|---------------|-4--------------|
A:------------------9-------|-9~------------|---4------------|
E:--------------------------|------x-9~-2-2-|----------------|

[End Guitar Solo 2]

  (A5)         (G)          (A)
e:------------|------------|----------|-----|
B:------------|------------|----------|-----|
G:------------|------------|--6-------|-----|
D:-7----------|--5---------|------7---|-----|
A:-----7------|------5-----|----------|-7---|
E:---------5--|----------3-|----------|-----|

   (A)   (G)   (A)       D   E   B    (A)   (G)   (A)       D   E   G
e:---------------------|-2---0-------|--------------------|-2---0--------|
B:---------------------|-3---0---4---|--------------------|-3---0---0----|
G:o-------------6------|-2---1---4---|-------------6------|-2---1---0---o|
D:o-7-----5-------7----|-0---2---4---|-7-----5-------7----|-0---2---0---o|
A:----7-----5-------7\-|-----2---2---|---7-----5-------7\-|-----2---2----|
E:------5-----5--------|-----0-------|-----5-----5--------|-----0---3----|

                 A
e:-------------|-0--0-0--0-0--0-0--0-|------------------------|
B:-0---0---0---|-2--2-2--2-2--2-2--2-|------------------------|
G:-0---0---0---|-2--2-2--2-2--2-2--2-|o----------------------o|
D:-0---0---0---|-2--2-2--2-2--2-2--2-|o----------------------o|
A:-2---2---2---|-0--0-0--0-0--0-0--0-|-----7-6----5~--3-0--2--|
E:-3---3---3---|---------------------|--5-------5-------------|

e:----------------------|---------------------|--------------------|
B:----------------------|---------------------|--------------------|
G:----------------------|---------------------|o------------------o|
D:----------------------|---------------------|o------------------o|
A:----7-6----5~--3-0--2-|-6h7p6p5\3---3-------|----7-6--5p3---3-2--|
E:-5-------5------------|-----------5----5\---|--5----------5------|

e:--------------------|---------------------|
B:--------------------|---------------------|
G:--------------------|---------------------|
D:--------------------|---------------------|
A:----7-6--5p3---3-2--|-6h7p6p5\3---3-------|
E:--5----------5------|-----------5----5\---|

e:-------------------|-----------------|-------------------|-----------------|
B:-------------------|-----------------|-------------------|-----------------|
G:---9-8-7p5---5-7b9~|---9-8-7p5---5-4~|---9-8-7p5---5-7b9~|-8b9r8s7p5---5---|
D:-7---------7-------|-7---------7-----|-7---------7-------|-----------7---7\|
A:-------------------|-----------------|-------------------|-----------------|
E:-------------------|-----------------|-------------------|-----------------|

    C
e:------------------------|
B:--5--5--5--5p3----------|
G:o-5--5--5------5p3-----o|
D:o-5--5--5----------5p0-o|
A:--3--3--3---------------|
E:------------------------|

    A                       A            D  E  D
e:-----------------------|-------------|----------|-----------------------|
B:--2--2--2-2p0----------|--2---2--2-2-|-7--9--7\-|--2--2--2-2p0----------|
G:o-2--2--2-----2p0-----o|--2---2--2-2-|-7--9--7\-|o-2--2--2-----2p0-----o|
D:o-2--2--2---------2p0-o|--2---2--2-2-|-7--9--7\-|o-2--2--2---------2p0-o|
A:--0--0--0--------------|--0---0--0-0-|-5--7--5\-|--0--0--0--------------|
E:-----------------------|-------------|----------|-----------------------|

    A            D  E  D
e:-------------|----------|-----------------------|
B:--2---2--2-2-|-7--9--7\-|--2--2--2-2p0----------|
G:--2---2--2-2-|-7--9--7\-|o-2--2--2-----2p0-----o|
D:--2---2--2-2-|-7--9--7\-|o-2--2--2---------2p0-o|
A:--0---0--0-0-|-5--7--5\-|--0--0--0--------------|
E:-------------|----------|-----------------------|

   C                                     F#
e:---------------------|---------------|--------------|--------------|
B:---------------------|---------------|--------------|--------------|
G:---------------------|------7--------|--------11----|-----------11-|
D:-3s5--3-5s7--5--9--7-|-10-9---10-9-7-|-----11----11-|--------11----|
A:---------------------|---------------|-9~-----------|-9~---9-------|
E:---------------------|---------------|--------------|----9---------|

   C                                     F#
e:---------------------|---------------|--------------|--------------|
B:---------------------|---------------|--------------|--------------|
G:---------------------|------7--------|--------------|--------------|
D:-3s5--3-5s7--5--9--7-|-10-9---10-9-7-|--------------|--------------|
A:---------------------|---------------|-9~-----------|------9-------|
E:---------------------|---------------|----9~~s2~----|--9~~---9\----|

                                                    A            D  E  D
e:-----------------------|-----------------------|-------------|----------|
B:--2--2--2-2p0----------|--2--2--2-2p0----------|--2---2--2-2-|-7--9--7\-|
G:o-2--2--2-----2p0-----o|o-2--2--2-----2p0-----o|--2---2--2-2-|-7--9--7\-|
D:o-2--2--2---------2p0-o|o-2--2--2---------2p0-o|--2---2--2-2-|-7--9--7\-|
A:--0--0--0--------------|--0--0--0--------------|--0---0--0-0-|-5--7--5\-|
E:-----------------------|-----------------------|-------------|----------|

                            A            D  E  D
e:-----------------------|-------------|----------|-----------------------|
B:--2--2--2-2p0----------|--2---2--2-2-|-7--9--7\-|--2--2--2-2p0----------|
G:o-2--2--2-----2p0-----o|--2---2--2-2-|-7--9--7\-|o-2--2--2-----2p0-----o|
D:o-2--2--2---------2p0-o|--2---2--2-2-|-7--9--7\-|o-2--2--2---------2p0-o|
A:--0--0--0--------------|--0---0--0-0-|-5--7--5\-|--0--0--0--------------|
E:-----------------------|-------------|----------|-----------------------|

   C                                     F#
e:---------------------|---------------|--------------|--------------|
B:---------------------|---------------|--------------|--------------|
G:---------------------|------7--------|--------11----|-----------11-|
D:-3s5--3-5s7--5--9--7-|-10-9---10-9-7-|-----11----11-|--------11----|
A:---------------------|---------------|-9~-----------|-9~---9-------|
E:---------------------|---------------|--------------|----9---------|

   C                                      F#
e:---------------------|---------------|------------------------|
B:---------------------|---------------|--2--2--2---------------|
G:---------------------|------7--------|o-3--3--3--4p2---------o|
D:-3s5--3-5s7--5--9--7-|-10-9---10-9-7-|o-4--4--4------4p2-----o|
A:---------------------|---------------|--4--4--4----------4p0--|
E:---------------------|---------------|--2--2--2---------------|

e:--------------------|--------------------|--------------------|
B:--------------------|--------------------|--------------------|
G:o------------------o|--------------------|--------------------|
D:o------------------o|--------------------|--------------------|
A:----7-6----5p3---3--|----7-6----5p3---3--|----7-6----5p3---3/-|
E:--5------------5----|--5------------5----|--5------------5----|

    A  Ab  G   F# F  E   Eb D  C# C B Bb  A          C
e:---------------------|----------------|----------|----------|
B:-14--13--12--11-10-9-|-8--7--6--5-4-3-|-2--------|-5--------|
G:-14--13--12--11-10-9-|-8--7--6--5-4-3-|-2--------|-5--------|
D:-14--13--12--11-10-9-|-8--7--6--5-4-3-|-2--------|-5--------|
A:-12--11--10--9--8--7-|-6--5--4--3-2-1-|-0--------|-3--------|
E:---------------------|----------------|----------|-3--------|

I do not own any of these tabs.


1000 views - 28 September 2013
comments
print report bad tab
1 comment total.
+2 reply
moozikaldood wrote on October 16 2013, 01:37 am

Whoever the author of this tab is, knows their stuff! This is just as dead on as it gets. There are a few positions I play differently, but the notes are all the same. Rush's finest album from their best era in my opinion.

I want to post or [tab]
guest
You may want to rate the tab now too:
select rating
Please do not post tabs as comments. Select "correction" instead!