Oops, an error
Loading. Please wait.

Leave That Thing Alone Tab

by Rush
ver1
ver1

Whole song

Interactive

More versions @911Tabs.com
4,402 views 9 this week
2 commentsread comments
1 2 3 4 5
accurate
x 5
Autoscroll
+/-
esc
set tempo
stop
Contributor
Difficulty
intermediate
Hey! There's an official Ultimate Guitar app which is ideal
for learning songs when you're away from computer. Get the app
WARNING: You are trying to view
                                    content from Ultimate-Guitar.com
                                    in an unauthorized application,
                                    which is prohibited.

                                    Please use an official Ultimate
                                    Guitar Tabs application for iPhone,
                                    iPad or Android to access legitimate
                                    chords, guitar, bass, and drum tabs
                                    from Ultimate-Guitar.com database.

                                    Type "ultimate guitar tabs" in Apple
                                    App Store's or Android Market's
                                    search to find the application.
   4/4 Timing

E|-5---7-7---7-7-7-7p5-5-5---5-5-5-|-5---5h7-7-7-7-7-7p5-5-5---5-5-5-|
B|-5---5-5---5-5-5-5---5-5---5-5-5-|-5---5---5-5-5-5-5---5-5---5-5-5-|
G|-5---5-5---5-5-5-5---5-5---5-5-5-|-5---5---5-5-5-5-5---5-5---5-5-5-|
D|-7---7-7---7-7-7-7---7-7---7-7-7-|-7---7---7-7-7-7-7---7-7---7-7-7-|
A|---------------------------------|---------------------------------|
E|---------------------------------|---------------------------------|

E|-5---5h7-7-7-7-7-7p5-5-5---5-5-5-|-5---5h7-7-7-7-7-7p5-5-5---5-5-5-|
B|-5---5---5-5-5-5-5---5-5---5-5-5-|-5---5---5-5-5-5-5---5-5---5-5-5-|
G|-5---5---5-5-5-5-5---5-5---5-5-5-|-5---5---5-5-5-5-5---5-5---5-5-5-|
D|-7---7---7-7-7-7-7---7-7---7-7-7-|-7---7---7-7-7-7-7---7-7---7-7-7-|
A|---------------------------------|---------------------------------|
E|---------------------------------|---------------------------------|

E|-5---5h7-7-7-7-7-7p5-5-5---5-5-5-|-5---5h7-7-7-7-7-7p5-5-5---5-5-5-|
B|-5---5---5-5-5-5-5---5-5---5-5-5-|-5---5---5-5-5-5-5---5-5---5-5-5-|
G|-5---5---5-5-5-5-5---5-5---5-5-5-|-5---5---5-5-5-5-5---5-5---5-5-5-|
D|-7---7---7-7-7-7-7---7-7---7-7-7-|-7---7---7-7-7-7-7---7-7---7-7-7-|
A|---------------------------------|---------------------------------|
E|---------------------------------|---------------------------------|

E|-5---5h7-7-7-7-7-7p5-5-5---5-5-5-|-5---5h7-7-7-7-7-7p5-5-5---5-5-5-|
B|-5---5---5-5-5-5-5---5-5---5-5-5-|-5---5---5-5-5-5-5---5-5---5-5-5-|
G|-5---5---5-5-5-5-5---5-5---5-5-5-|-5---5---5-5-5-5-5---5-5---5-5-5-|
D|-7---7---7-7-7-7-7---7-7---7-7-7-|-7---7---7-7-7-7-7---7-7---7-7-7-|
A|---------------------------------|---------------------------------|
E|---------------------------------|---------------------------------|

E|-5---5h7-7-7-7-7-7p5-5-5---5-5-5-|-5---5h7-7-7-7-7-7p5-5-5---5-5-5-|
B|-5---5---5-5-5-5-5---5-5---5-5-5-|-5---5---5-5-5-5-5---5-5---5-5-5-|
G|-5---5---5-5-5-5-5---5-5---5-5-5-|-5---5---5-5-5-5-5---5-5---5-5-5-|
D|-7---7---7-7-7-7-7---7-7---7-7-7-|-7---7---7-7-7-7-7---7-7---7-7-7-|
A|---------------------------------|---------------------------------|
E|---------------------------------|---------------------------------|

E|-5---5h7-7-7-7-7-7p5-5-5---5-5-5-|-5---5h7-7-7-7-7-7p5-5-5---5-5-5-|
B|-5---5---5-5-5-5-5---5-5---5-5-5-|-5---5---5-5-5-5-5---5-5---5-5-5-|
G|-5---5---5-5-5-5-5---5-5---5-5-5-|-5---5---5-5-5-5-5---5-5---5-5-5-|
D|-7---7---7-7-7-7-7---7-7---7-7-7-|-7---7---7-7-7-7-7---7-7---7-7-7-|
A|---------------------------------|---------------------------------|
E|---------------------------------|---------------------------------|

E|-12~~~---------------------------|---------------------------------|
B|-----------------10------12------|---------------------------------|
G|---------------------------------|-12vvv----------------------10\--|
D|---------------------------------|---------------------------------|
A|---------------------------------|---------------------------------|
E|---------------------------------|---------------------------------|

E|---------------------------------|---------------------------------|
B|---------------------------------|---------------------------------|
G|-9vvv--------------------9-------|-10\-------------5~~~-------9h10-|
D|---------------------------------|---------7-----------------------|
A|---------------------------------|---------------------------------|
E|---------------------------------|---------------------------------|

E|-12~~~---------------------------|---------------------------------|
B|-----------------10------12------|---------------------------------|
G|---------------------------------|-12~~~----------------------10\--|
D|---------------------------------|---------------------------------|
A|---------------------------------|---------------------------------|
E|---------------------------------|---------------------------------|

E|---------------------------------|---------------------------------|
B|---------------------------------|---------------------------------|
G|-9~~~------------------------7\--|-(7)\5~~~------------------------|
D|---------------------------------|---------------------------------|
A|---------------------------------|---------------------------------|
E|---------------------------------|---------------------------------|

E|-5---5h7-7-7-7-7-7p5-5-5---5-5-5-|-5---5h7-7-7-7-7-7p5-5-5---5-5-5-|
B|-5---5---5-5-5-5-5---5-5---5-5-5-|-5---5---5-5-5-5-5---5-5---5-5-5-|
G|-5---5---5-5-5-5-5---5-5---5-5-5-|-5---5---5-5-5-5-5---5-5---5-5-5-|
D|-7---7---7-7-7-7-7---7-7---7-7-7-|-7---7---7-7-7-7-7---7-7---7-7-7-|
A|---------------------------------|---------------------------------|
E|---------------------------------|---------------------------------|

E|-5---5h7-7-7-7-7-7p5-5-5---5-5-5-|-5---5h7-7-7-7-7-7p5-5-5---5-5-5-|
B|-5---5---5-5-5-5-5---5-5---5-5-5-|-5---5---5-5-5-5-5---5-5---5-5-5-|
G|-5---5---5-5-5-5-5---5-5---5-5-5-|-5---5---5-5-5-5-5---5-5---5-5-5-|
D|-7---7---7-7-7-7-7---7-7---7-7-7-|-7---7---7-7-7-7-7---7-7---7-7-7-|
A|---------------------------------|---------------------------------|
E|---------------------------------|---------------------------------|

E|-5---5h7-7-7-7-7-7p5-5-5---5-5-5-|-5---5h7-7-7-7-7-7p5-5-5---5-5-5-|
B|-5---5---5-5-5-5-5---5-5---5-5-5-|-5---5---5-5-5-5-5---5-5---5-5-5-|
G|-5---5---5-5-5-5-5---5-5---5-5-5-|-5---5---5-5-5-5-5---5-5---5-5-5-|
D|-7---7---7-7-7-7-7---7-7---7-7-7-|-7---7---7-7-7-7-7---7-7---7-7-7-|
A|---------------------------------|---------------------------------|
E|---------------------------------|---------------------------------|

E|-5---5h7-7-7-7-7-7p5-5-5---5-5-5-|-5---5h7-7-7-7-7-7p5-5-5---5-5-5-|
B|-5---5---5-5-5-5-5---5-5---5-5-5-|-5---5---5-5-5-5-5---5-5---5-5-5-|
G|-5---5---5-5-5-5-5---5-5---5-5-5-|-5---5---5-5-5-5-5---5-5---5-5-5-|
D|-7---7---7-7-7-7-7---7-7---7-7-7-|-7---7---7-7-7-7-7---7-7---7-7-7-|
A|---------------------------------|---------------------------------|
E|---------------------------------|---------------------------------|

E|-12~~~---------------------------|---------------------------------|
B|-----------------10------12------|---------------------------------|
G|---------------------------------|-12vvv----------------------10\--|
D|---------------------------------|---------------------------------|
A|---------------------------------|---------------------------------|
E|---------------------------------|---------------------------------|

E|---------------------------------|---------------------------------|
B|---------------------------------|---------------------------------|
G|-9vvv--------------------9-------|-10\-------------5~~~-------9h10-|
D|---------------------------------|---------7-----------------------|
A|---------------------------------|---------------------------------|
E|---------------------------------|---------------------------------|

E|-12~~~---------------------------|---------------------------------|
B|-----------------10------12------|---------------------------------|
G|---------------------------------|-12~~~----------------------10\--|
D|---------------------------------|---------------------------------|
A|---------------------------------|---------------------------------|
E|---------------------------------|---------------------------------|

E|---------------------------------|---------------------------------|
B|---------------------------------|---------------------------------|
G|-9~~~------------------------7\--|-5~~~----------------------------|
D|---------------------------------|---------------------------------|
A|---------------------------------|---------------------------------|
E|---------------------------------|---------------------------------|

                                     2/4 Timing
E|---------------------------------|-----------------|
B|---------------------------------|-----------------|
G|---------------------------------|-----------------|
D|---------------------------------|-----------------|
A|---------3---3-5---5---5/7-p-5---|-----------------|
E|-5---5-------------------------3-|-2---2-2-3-3-3-5-|

   4/4 Timing                        2/4 Timing
E|---------------------------------|-----------------|
B|---------------------------------|-----------------|
G|---------------------------------|-----------------|
D|---------------------------------|-----------------|
A|---------3---3-3-5-5-5-5/7-p-5---|-----------------|
E|---5---5-----------------------2-|---2---2-3-3-3-3-|

   4/4 Timing                        2/4 Timing
E|---------------------------------|-----------------|
B|---------------------------------|-----------------|
G|---------------------------------|-----------------|
D|---------------------------------|-----------------|
A|---------3---3-5---5---5/7-p-5---|-----------------|
E|-5---5-------------------------3-|-2---2-2-3-3-3-5-|

   4/4 Timing                        2/4 Timing
E|---------------------------------|-----------------|
B|---------------------------------|-----------------|
G|---------------------------------|-----------------|
D|---------------------------------|-----------------|
A|---------3---3-3-5-5-5-5/7-p-5---|-----------------|
E|---5---5-----------------------2-|---2---2-3-3-3-3-|

   3/4 Timing                Guitar Tacet
E|-------------------------|-------------------------|
B|-------------------------|-------------------------|
G|-------------------------|-------------------------|
D|-------------------------|-------------------------|
A|-------------------------|-------------------------|
E|-5-\-0-------------------|-------------------------|

E|-------------------------|-------------------------|
B|-------------------------|-------------------------|
G|-------------------------|-------------------------|
D|-------------------------|------------2p0---2p3----|
A|-----------------------0-|-----2---3-------3-----0-|
E|-------------------------|-------------------------|

E|-------------------------|-------------------------|
B|-------------------------|-------------------------|
G|-------------------------|-------------------------|
D|-------------2p0---2h3---|-------------------------|
A|-----2---3-------3-------|-------------2p0---2h3---|
E|-----------------------0-|-----2---3-------3-----0-|

E|-------------------------|-------------------------|
B|-------------------------|-------------------------|
G|-------------------------|-------------------------|
D|-------------------------|-------------------------|
A|-------------2p0---2h3---|-------------2p0---2h3---|
E|-----2---3-------3-----0-|-----2---3-------3-----0-|

E|-------------------------|-------------------------|
B|-------------------------|-------------------------|
G|-------------------------|-------------------------|
D|-------------------------|-------------2p0---2h3---|
A|-------------2p0---2h3-0-|-----2---3-------3-----0-|
E|-----2---3-------3-------|-------------------------|

E|-------------------------|-------------------------|
B|-------------------------|-------------------------|
G|-------------------------|-------------------------|
D|-------------2p0---2h3---|-------------2p0---2h3---|
A|-----2---3-------3-----0-|-----2---3-------3-----0-|
E|-------------------------|-------------------------|

E|-------------------------|-------------------------|
B|-------------------------|-------------------------|
G|-------------------------|-------------------------|
D|-------------2p0---2h3---|-------------------------|
A|-----2---3-------3-------|-------------2p0---2h3---|
E|-----------------------0-|-----2---3-------3-----0-|

E|-------------------------|-------------------------|
B|-------------------------|-------------------------|
G|-------------------------|-------------------------|
D|-------------------------|-------------------------|
A|-------------2p0---2h3---|-------------2p0---2h3---|
E|-----2---3-------3-----0-|-----2---3-------3-----0-|

E|-------------------------|-------------------------|
B|-------------------------|-------------------------|
G|-------------------------|-------------------------|
D|-------------------------|-------------2p0---2h3---|
A|-------------2p0---2h3-0-|-----2---3-------3-----0-|
E|-----2---3-------3-------|-------------------------|

                             6/4 Timing (With Echo Delay)
                             e   Q          s  E     h               e   e
E|-------------------------|-------------------------------------------------|
B|-------------------------|-------------------7-----10~~~-------------------|
G|-------------------------|---------------------------------------------7---|
D|-------------2p0---2h3---|-7---9---------(9)-----------------------9-------|
A|-----2---3-------3-------|-------------------------------------------------|
E|-------------------------|-------------------------------------------------|

   h               q       h               e   e
E|-------------------------------------------------|
B|-------------------------12~~~---------------7---|
G|-9~~~------------7-------------------------------|
D|-----------------------------------------9-------|
A|-------------------------------------------------|
E|-------------------------------------------------|

   h               e   e   h             s  s  e
E|-----------------7-------------------------------|
B|-10~~~-------------------7~~~---------(7)h10-----|
G|---------------------9-----------------------7---|
D|-------------------------------------------------|
A|-------------------------------------------------|
E|-------------------------------------------------|

   h               e   e   h               s s e
E|-------------------------------------------------|
B|---------------------------------------------7---|
G|-------------------------------------------------|
D|-9~~~------------7-------7~~~------------7h9-----|
A|---------------------9---------------------------|
E|-------------------------------------------------|

   Q           e   e   Q            q     s s  s s
E|---------------------------------------------7---|
B|----------------------------------------7h10---7-|
G|-9~~~--\-----7-------7~~~--------(7)-------------|
D|-----------------9-------------------------------|
A|-------------------------------------------------|
E|-------------------------------------------------|

   h           e   e   E     s     q   s    s   e
E|-------------------------------------------------|
B|-10~~~----10h12--12--12~~~-12-12b14-(14)-(12)-10-|
G|-------------------------------------------------|
D|-------------------------------------------------|
A|-------------------------------------------------|
E|-------------------------------------------------|

   h              e    e   q       q       q
E|-12~~~---------(10)--10--12--/---15------12------|
B|-------------------------vvvvvvvvvvvvvvvvvvvvvvv-|
G|-------------------------------------------------|
D|-------------------------------------------------|
A|-------------------------------------------------|
E|-------------------------------------------------|

   Q           e   e   e   E     s  q      e   e
E|-17--------------17/-19--17----17-19vvv--19/-21--|
B|-vv----------------------------------------------|
G|-------------16----------------------------------|
D|-------------------------------------------------|
A|-------------------------------------------------|
E|-------------------------------------------------|

   q       e   e   e   e   e   e      Q        e
E|-19vvv---19--19--21--19--21--19--21b22-------22--|
B|-------------------------------------------------|
G|-------------------------------------------------|
D|-------------------------------------------------|
A|-------------------------------------------------|
E|-------------------------------------------------|

   Q           q     q       e     q   s    s   e
E|-24~~~--\----22----24---24b26-24b26-(26)-(24)-22-|
B|-------------------------------------------------|
G|-------------------------------------------------|
D|-------------------------------------------------|
A|-------------------------------------------------|
E|-------------------------------------------------|

   q         E    s  e   e   h           e   s  s
E|-24vvv----(24)--22-24\-22--22~~~------(22)-22-22-|
B|-------------------------------------------------|
G|-------------------------------------------------|
D|-------------------------------------------------|
A|-------------------------------------------------|
E|-------------------------------------------------|

   q          q     s    s   e   e   e   Q     e
E|-22------24b26---(26)-(24)-22--24--22--24~~~-22--|
B|-a.h.--------------------------------------------|
G|-------------------------------------------------|
D|-------------------------------------------------|
A|-------------------------------------------------|
E|-------------------------------------------------|

   3/4 Timing
   H                          H
E|-24vvv-------------------|-(24)--------------------|
B|-------------------------|-------------------------|
G|-------------------------|-------------------------|
D|-------------------------|-------------------------|
A|-------------2p0---2h3---|-------------2p0---2h3---|
E|-0---2---3-------3-----0-|-0---2---3-------3-----0-|

E|-------------------------|-------------------------|
B|-------------------------|-------------------------|
G|-------------------------|-------------------------|
D|-------------------------|-------------------------|
A|-------------2p0---2h3---|-------------2p0---2h3---|
E|-0---2---3-------3-----0-|-0-0-2---3-------3-------|

   4/4 Timing (Guitar 2 Plays Rhythm Fill (8x))

E|-12~~~---------------------------|---------------------------------|
B|-----------------10------12------|---------------------------------|
G|---------------------------------|-12vvv----------------------10\--|
D|---------------------------------|---------------------------------|
A|---------------------------------|---------------------------------|
E|---------------------------------|---------------------------------|

E|---------------------------------|---------------------------------|
B|---------------------------------|---------------------------------|
G|-9vvv------------9-------9-------|-10\-------------5~~~-------9h10-|
D|---------------------------------|---------7-----------------------|
A|---------------------------------|---------------------------------|
E|---------------------------------|---------------------------------|

E|-12~~~---------------------------|---------------------------------|
B|-----------------10------12------|---------------------------------|
G|---------------------------------|-12~~~----------------------10\--|
D|---------------------------------|---------------------------------|
A|---------------------------------|---------------------------------|
E|---------------------------------|---------------------------------|

E|---------------------------------|---------------------------------|
B|---------------------------------|---------------------------------|
G|-9~~~------------9~~~--------7---|-5~~~------------(5)----/----10--|
D|---------------------------------|---------------------------------|
A|---------------------------------|---------------------------------|
E|---------------------------------|---------------------------------|

E|-12~~~---------------------------|---------------------------------|
B|-----------------10------12------|---------------------------------|
G|---------------------------------|-10------12vvv---------------10--|
D|---------------------------------|---------------------------------|
A|---------------------------------|---------------------------------|
E|---------------------------------|---------------------------------|

E|---------------------------------|---------------------------------|
B|---------------------------------|---------------------------------|
G|-9~~~----------------9---9---9---|-10\-------------5~~~--------9---|
D|---------------------------------|---------7-----------------------|
A|---------------------------------|---------------------------------|
E|---------------------------------|---------------------------------|

E|-12~~~---------------------------|---------------------------------|
B|-----------------10------12------|---------------------------------|
G|---------------------------------|-12~~~-----------------------10--|
D|---------------------------------|---------------------------------|
A|---------------------------------|---------------------------------|
E|---------------------------------|---------------------------------|

E|---------------------------------|---------------------------------|
B|---------------------------------|-5vvv----------------------------|
G|-9~~~------------9-----------7---|-5vvv----------------------------|
D|-a.h.----------------------------|---------------------------------|
A|---------------------------------|---------------------------------|
E|---------------------------------|---------------------------------|

                                     2/4 Timing
E|---------------------------------|-----------------|
B|---------------------------------|-----------------|
G|---------------------------------|-----------------|
D|---------------------------------|-----------------|
A|---------3---3-5---5---5/7-p-5---|-----------------|
E|-5---5-------------------------3-|-2---2-2-3-3-3-5-|

   4/4 Timing                        2/4 Timing
E|---------------------------------|-----------------|
B|---------------------------------|-----------------|
G|---------------------------------|-----------------|
D|---------------------------------|-----------------|
A|---------3---3-3-5-5-5-5/7-p-5---|-----------------|
E|---5---5-----------------------2-|---2---2-3-3-3-3-|

   4/4 Timing                        2/4 Timing
E|---------------------------------|-----------------|
B|---------------------------------|-----------------|
G|---------------------------------|-----------------|
D|---------------------------------|-----------------|
A|---------3---3-5---5---5/7-p-5---|-----------------|
E|-5---5-------------------------3-|-2---2-2-3-3-3-5-|

   4/4 Timing
E|---------------------------------|
B|---------------------------------|
G|---------------------------------|
D|---------------------------------|
A|---------3---3-3/5---5-5/7-------|
E|---5---5-------------------------|

   6/4 Timing
   Guitar Tacet
E|-------------------------------------------------|
B|-------------------------------------------------|
G|-------------------------------------------------|
D|-------------------------------------------------|
A|-------------------------------------------------|
E|-------------------------------------------------|

   4/4 Timing

E|-5---5h7-7-7-7-7-7p5-5-5---5-5-5-|-5---5h7-7-7-7-7-7p5-5-5---5-5-5-|
B|-5---5---5-5-5-5-5---5-5---5-5-5-|-5---5---5-5-5-5-5---5-5---5-5-5-|
G|-5---5---5-5-5-5-5---5-5---5-5-5-|-5---5---5-5-5-5-5---5-5---5-5-5-|
D|-7---7---7-7-7-7-7---7-7---7-7-7-|-7---7---7-7-7-7-7---7-7---7-7-7-|
A|---------------------------------|---------------------------------|
E|---------------------------------|---------------------------------|

E|-5---5h7-7-7-7-7-7p5-5-5---5-5-5-|-5---5h7-7-7-7-7-7p5-5-5---5-5-5-|
B|-5---5---5-5-5-5-5---5-5---5-5-5-|-5---5---5-5-5-5-5---5-5---5-5-5-|
G|-5---5---5-5-5-5-5---5-5---5-5-5-|-5---5---5-5-5-5-5---5-5---5-5-5-|
D|-7---7---7-7-7-7-7---7-7---7-7-7-|-7---7---7-7-7-7-7---7-7---7-7-7-|
A|---------------------------------|---------------------------------|
E|---------------------------------|---------------------------------|

E|-5---5h7-7-7-7-7-7p5-5-5---5-5-5-|-5---5h7-7-7-7-7-7p5-5-5---5-5-5-|
B|-5---5---5-5-5-5-5---5-5---5-5-5-|-5---5---5-5-5-5-5---5-5---5-5-5-|
G|-5---5---5-5-5-5-5---5-5---5-5-5-|-5---5---5-5-5-5-5---5-5---5-5-5-|
D|-7---7---7-7-7-7-7---7-7---7-7-7-|-7---7---7-7-7-7-7---7-7---7-7-7-|
A|---------------------------------|---------------------------------|
E|---------------------------------|---------------------------------|

E|-5---5h7-7-7-7-7-7p5-5-5---5-5-5-|-5---5h7-7-7-7-7-7p5-5-5---5-5-5-|
B|-5---5---5-5-5-5-5---5-5---5-5-5-|-5---5---5-5-5-5-5---5-5---5-5-5-|
G|-5---5---5-5-5-5-5---5-5---5-5-5-|-5---5---5-5-5-5-5---5-5---5-5-5-|
D|-7---7---7-7-7-7-7---7-7---7-7-7-|-7---7---7-7-7-7-7---7-7---7-7-7-|
A|---------------------------------|---------------------------------|
E|---------------------------------|---------------------------------|

   (Guitar 2 Plays Rhythm Fill (7x))

E|-12~~~---------------------------|---------------------------------|
B|-----------------10------12------|---------------------------------|
G|---------------------------------|-12~~~-----------(12)------------|
D|---------------------------------|------------------n.h.-----------|
A|---------------------------------|---------------------------------|
E|---------------------------------|---------------------------------|

E|---------------------------------|---------------------------------|
B|---------------------------------|---------------------------------|
G|-(12)----------------------------|-(12)----------------------------|
D|---------------------------------|---------------------------------|
A|---------------------------------|---------------------------------|
E|---------------------------------|---------------------------------|

E|---------------------------------|---------------------------------|
B|---------------------------------|---------------------------------|
G|-(12)----------------------------|-(12)----------------------------|
D|---------------------------------|---------------------------------|
A|---------------------------------|---------------------------------|
E|---------------------------------|---------------------------------|

E|-12~~~---------------------------|---------------------------------|
B|-----------------10------12------|---------------------------------|
G|---------------------------------|-12~~~-----------(12)------------|
D|---------------------------------|------------------n.h.-----------|
A|---------------------------------|---------------------------------|
E|---------------------------------|---------------------------------|

E|---------------------------------|---------------------------------|
B|---------------------------------|---------------------------------|
G|-(12)----------------------------|-(12)----------------------------|
D|---------------------------------|---------------------------------|
A|---------------------------------|---------------------------------|
E|---------------------------------|---------------------------------|

E|---------------------------------|---------------------------------|
B|---------------------------------|---------------------------------|
G|-(12)----------------------------|-(12)----------------------------|
D|---------------------------------|---------------------------------|
A|---------------------------------|---------------------------------|
E|---------------------------------|---------------------------------|

E|---------------------------------|---------------------------------|
B|---------------------------------|---------------------------------|
G|-(12)----------------------------|-(12)----------------------------|
D|---------------------------------|---------------------------------|
A|---------------------------------|---------------------------------|
E|---------------------------------|---------------------------------|
                                                                  End


**************************************************************************
*                                                                        *
*    Rhythm Fill                                                         *
*                                                                        *
* E|-5---5h7-7-7-7-7-7p5-5-5---5-5-5-|-5---5h7-7-7-7-7-7p5-5-5---5-5-5-| *
* B|-5---5---5-5-5-5-5---5-5---5-5-5-|-5---5---5-5-5-5-5---5-5---5-5-5-| *
* G|-5---5---5-5-5-5-5---5-5---5-5-5-|-5---5---5-5-5-5-5---5-5---5-5-5-| *
* D|-7---7---7-7-7-7-7---7-7---7-7-7-|-7---7---7-7-7-7-7---7-7---7-7-7-| *
* A|---------------------------------|---------------------------------| *
* E|---------------------------------|---------------------------------| *
*                                                                        *
**************************************************************************


Tablature Explanation

p    - Pull Off
h    - Hammer On
~    - Vibrato
v    - Bar Vibrato
/    - Slide Down
\    - Slide Up
(5)  - Ghost Note
b    - Bend
a.h. - Artificial Harmonic
n.h. - Natural Harmonic


Notation

w - Whole
h - Half
q - Quarter
e - 8th
s - 16th
t - 32th
x - 64th

Capital durations are dotted notes.

comments
print report bad tab
2 comments total. show 1 bad comment
-1 reply
acefrehley3 wrote on December 24 2008, 12:29 pm

you didn't write this

I want to post or [tab]
guest
You may want to rate the tab now too:
select rating
Please do not post tabs as comments. Select "correction" instead!