Oops, an error
Loading. Please wait.

Rush Tab

by Rush
2,935 views 13 this week
no commentswrite comment
1 2 3 4 5
excellent!
x 3
add to favorites launch autoscroll
font size
0
reset
Autoscroll
+/-
esc
set tempo
stop
Contributor
WARNING: You are trying to view
                                    content from Ultimate-Guitar.com
                                    in an unauthorized application,
                                    which is prohibited.

                                    Please use an official Ultimate
                                    Guitar Tabs application for iPhone,
                                    iPad or Android to access legitimate
                                    chords, guitar, bass, and drum tabs
                                    from Ultimate-Guitar.com database.

                                    Type "ultimate guitar tabs" in Apple
                                    App Store's or Android Market's
                                    search to find the application.
Rush - Rush (album)

Tracklist:

1. Finding My Way
2. Need Some Love
3. Take A Friend
4. Here Again
5. What You're Doing
6. In The Mood
7. Before and After
8. Working Man

Finding My Way:


intro
|-5------------------------------------------5--------------------------------|
|-5------------------------------------------5--------------------------------|
|-2---------------_-----_-----_-----_--------2---------------_-----_-----_----|
|-2--------------4-2---4-2---4-2---4-2--_----2--------------4-2---4-2---4-2---|
|-0--0-0-0-0-0-0-----3-----3-----3-----3-0---0--0-0-0-0-0-0-----3-----3-----3-|
|-----------------------------------------------------------------------------|

                                                              verse
-----------5-----------------------------------------3------|--------------3--|
-----------5-----------------------------------------3--3---|-----------3--3--|
--_--------2---------------_-----_-----_-----_-------0--2--.|--2-2---2--2--0--|
-4-2--_----2--------------4-2---4-2---4-2---4-2--_---0--0--.|--2-2---2--0--0--|
-----3-0---0--0-0-0-0-0-0-----3-----3-----3-----3-0---------|--0-0---0--------|
------------------------------------------------------------|------3----------|
 [repeat four times]

----------------3-----------------3-----------------3------------------------|
-3-----------3--3--3-----------3--3--3-----------3--3--3---------------------|
-2--2-2---2--2--0--2--2-2---2--2--0--2--2-2---2--2--0--2---5-5-3-5--5--------|
-0--2-2---2--0--0--0--2-2---2--0--0--0--2-2---2--0--0--0---5-5-3-5--5--3--5--|
----0-0---0-----------0-0---0-----------0-0---0------------3-3-1-3--3--3--5--|
--------3-----------------3-----------------3--------------------------1--3--|

                                                           chorus
---------------------------------3-----------------3-----|------------------|
------------------------------3--3--3-----------3--3--3--|------------------|
--5-5-3-5--5---------2-2---2--2--0--2--2-2---2--2--0--2--|------------------|
--5-5-3-5--5--3--5---2-2---2--0--0--0--2-2---2--0--0--0--|---3-----------5--|
--3-3-1-3--3--3--5---0-0---0-----------0-0---0-----------|---3------3----5--|
--------------1--3-------3-----------------3-------------|---1---1--1--1-3--|

-------------------------3-3--|
-------------------------3-3--|

----------2-2----2----2--0-0--|  repeat intro 3 times then
----------2-2----2----2--0-0--|  verse and chorus once each
----5-----0-0----0----0-------|
--3-3--3-------3----3---------|

bridge

|---------------------------|---------------------------|-------------------|
|---------------------------|---------------------------|-------------------|
|--------------7-7---------.|--------------5-5---------.|--------------7-7--|
|--7-7---------7-7---------.|--5-5---------5-5---------.|--7-7---------7-7--|
|--7-7--4-5-7--5-5----------|--5-5--2-3-5--3-3----------|--7-7--4-5-7--5-5--|
|--5-5--------------2-3-4---|--3-3--------------0-1-2---|--5-5--------------|
 [repeat two times]          [repeat two times]

------------------------------|
------------------------------|
--------------------7-7-------|
--------7-7---------7-7--5-7--|
--------7-7--4-5-7--5-5--5-7--|
-2-3-4--5-5--------------3-5--|


 Solo
|--------------------15--15-------15--------_----|
|------13-15-13--15>====(17)--15--15>(17)>15-13--|
|-->14-------------------------------------------|
|------------------------------------------------|
|------------------------------------------------|
|------------------------------------------------|


-----------------------------------_--------------------_---------_------------|
---15-13----------13>15--17>(19)>17-15---------------5-8-5-----5-8-5----_------|
14-------14-13-14-----------------------17-14->--7->-------7->-------7-7-5-----|
---------------------------------------------------------------------------7-5-|
-------------------------------------------------------------------------------|
-------------------------------------------------------------------------------|


-------------------------------------------------------------------------------|
------------_-------------_-_---------_----------------------------------------|
5-7>-(10)->7-5---5-5--_--5-7-5---5-7-7-5---5-----------------------------------|
---------------7-----5-7-------7---------7---7-6-5-----------------------------|
---------------------------------------------------7-6-5-3-5-5><><-----3-3-----|
--------------------------------------------------------------------3-5----3-5-|


------------------------------------------------------_------------------_-----|
---------------------------------------------------5-8-5--------------5-8-5----|
-----------------_----5>-8->5--_-------_--5---5-7>-------7-5---5-5-7>-------7--|
---_----------5-7-5-----------5-7--_--5-7---7----------------7-----------------|
3-5-3---3-5>7-------7-------------5-7------------------------------------------|
------5------------------------------------------------------------------------|

                         _
---_--------_---------5-8-5---5--_-_------------------------------------------|
5-8-5----5-8-5----5-8-------7---8-7-5----5--_----5-------------------_--------|
------7>-------7>---------------------7>---7-5---5-7-----5-7>-(11)->7-5---5-5-|
-----------------------------------------------7---7-5-7----------------7-----|
------------------------------------------------------------------------------|
------------------------------------------------------------------------------|

interlude               gtr1
|---------_----------|-------------_----------------|-----------------------|
|------5-7_8---------|--------5---7_8---------------|---------_-------------|
|------5-7-8-5-7-5--.|--------5---7-8--5---7---5---.|------5-7-8-5-7-5------|
|--5-7--------------.|--5--7-----------------------.|--5-7-------------5-7--|
|--------------------|------------------------------|-----------------------|
|--------------------|------------------------------|-----------------------|
 [repeat 4 times]    | gtr2                         |
                     |------------------------------|
                     |-------------_----------------|
                     |--------12-14-15-12--14--12--.|
                     |--12-14----------------------.|
                     |------------------------------|
                     |------------------------------|
                      [repeat 2 times]

-----_---------|
--5-7_8-5-7-5--|  repeat chorus twice between bridge and solo; solo
--5-7-8-5-7-5--|  is played over verse; after interlude, play chorus
---------------|  two times, then the intro three times
---------------|
---------------|

ending verse
|--------------3-----------------3-----------------3---------------|
|-----------3--3--3-----------3--3--3-----------3--3--3------------|
|--2-2---2--2--0--2--2-2---2--2--0--2--2-2---2--2--0--2---2-2---2--|
|--2-2---2--0--0--0--2-2---2--0--0--0--2-2---2--0--0--0---2-2---2--|
|--0-0---0-----------0-0---0-----------0-0---0------------0-0---0--|
|------3-----------------3-----------------3------------------3----|

In the intro section, though this is not notated, Alex often plays the A chord
with a quick upstroke before the beat followed by a downstroke on the beat. The
open string notes in the intro are all played with downstrokes.


Need Some Love:


verse                                       chorus
|------------------------------------------|-----------------------------0-0--|
|--4--5--4---4--5--4---2--2--2---5--5--5---|--3---3-3--------------------0-0--|
|--4--4--4---4--4--4---2--2--2---4--4--4--.|--2---2-2--2---2-2------_--3------|
|--4--2--4---4--2--4---2--2--2---2--2--2--.|--0---0-0--2---2-2--2--2-4--------|
|--2--2--2---2--2--2---0--0--0---2--2--2---|-----------0---0-0--2-------------|
|------------------------------0-----------|--------------------0-------------|
 [repeat four times]

    _
-0-2-0--_-----------------------------------------_--------------------------|
-0-----3-0--_---3---3-3--------------------------2-0----3---3-3--------------|
-----------2-0--2---2-2--2---2-2---------------------2--2---2-2--2---2-2-----|
----------------0---0-0--2---2-2--2--2-X-X-0-X-X--------0---0-0--2---2-2--2--|
-------------------------0---0-0--2------------------------------0---0-0--2--|
----------------------------------0---------------------------------------0--|

---------------------------------------_------_------_--------|
--------------------------3--3--5--4--4-4-4--4-4-4--4-4-5--4--|
--------------------------0--2--4--4--4-4-4--4-4-4--4-4-4--4--|  repeat verse
-----0-0-2-2-----0-0------0--0--2--4--4-4-4--4-4-4--4-4-2--4--|  and chorus
-0-2---------0-2----------------2--2--2-2-2--2-2-2--2-2-2--2--|
---------------------0-3--------------------------------------|


bridge                                               presolo
|--------------------------------------------------|---------------------------|
|--------------------------------------------------|--9-9-9-9-9>--9-9-9-9-9>---|
|-------------------------------------------------.|--9-9-9-9-9>--8-8-8-8-8>--.|
|-------------------------0--2-2-2-2-2------0-----.|--9-9-9-9-9>--7-7-7-7-7>--.|
|--2-2-2-2-2-2----0-2-0-2----0-0-0-0-0-0--2---0----|--7-7-7-7-7>--7-7-7-7-7>---|
|--0-0-0-0-0-0--3-------------------------------3--|---------------------------|
 [repeat 6 times]                                    [repeat 2 times]


solo
|-------------------------------------------------------------------------|
|-15------15--15-----------15---------15---------15---------15---------15-|
|-14>(16)-14>=(16)-14>(16)----14>(16)----14>(16)----14>(16)----14>(16)----|
|-------------------------------------------------------------------------|
|-------------------------------------------------------------------------|
|-------------------------------------------------------------------------|

|-----------------------------|
|-----------------------------|
|-12----14----12-------12-14--|
|----14----14----12>14--------|
|-----------------------------|
|-----------------------------|


------------------------------------------------------------------------------|
-------------------------------------------_-----------_------------_---------|
-14>-(16)-(16)-(16)-(16)-(16)-(16)-(16)>-14-12----14-14-12-----12-14-12-------|
-----------------------------------------------12-14------->14----------14----|
------------------------------------------------------------------------------|
------------------------------------------------------------------------------|


--------------------------------------------------------------------------|
----15-------------_-----------_-----------------------------_------------|
14>----14>-(16)->14-12-14-12-14-12----12---------7-9>-(11)->9-7---9-7-7-9-|
-----------------------------------14----14--7-9----------------9---------|
--------------------------------------------------------------------------|
--------------------------------------------------------------------------|


                                     ending
                                     gtr1   gtr2
------------------------------------|------|------|
------------------------------------|------|--9---|
-----7------------------------------|------|--9---|
-7-9---9-8-7---5-7<>-5-7-5----------|--2---|--9---|
---------------------------7-5-7<---|--2---|--7---|
------------------------------------|--0---|------|

The presolo and solo are played over the bridge, then the chorus is played
once and then both the bridge and presolo are played once followed by the
ending.

At the end of the chorus, the '_' between the B chords indicates the rhythm
of two eighth notes followed by a quarter note. The slide at the end of the
solo is played by running the pick down (towards the nut) the middle strings.


Take A Friend:


Intro                                   Fade in... keep repeating (about 6
times)

      D             A               C            G
||-----------------------------------------------------------|
||-----------------------------------------------------------|
||-----------------------------------------------------------|
||-------4--7---------------------------2--5-----------------|
||----5-----------------4--7---------3--------------2--5-----|
||-------------------5---------------------------3-----------|

On the last repeating:
||----------------------------------------------------------------|
||----------------------------------------------------------------|
||----------------------------------------------------------------|
||-------4--7---------------------------2--5----------------------|
||----5-----------------4--7---------3--------------2--5--5~~~~---|
||-------------------5---------------------------3----------------|


Breaking the intro,
MAIN RIFF
                       D   D
||------------------------------------|
||------------------------------------|
||---------------------7---7----------|
||---------------------7---7----------|
||----------3-----3----5---5----------|
||-----3h5-----5----------------------|


Fill (may be lacking some notes but you can get the idea)
||---------3------3------------------------|
||-----5b-----5b-----5b---3------5-----3---|
||----------------------------5-----5------|
||-----------------------------------------|
||-----------------------------------------|
||-----------------------------------------|

Alex does some cool hard-rock fills EVERYWHERE thru the music
that are hard for me to get, but they are all variations
of the first Fill, you can improvize and make your own
Lifeson Fill :)


Keep repeating the MAIN RIFF and adding some fills around :)

until..
"No one to stick with you till the eeeeeend..."


G           F        D
   Take yourself a friend
G           F        D
   Keep'em till the end, ooh ooh
G           F        D
   Whether woman or man,
F             G        A
   makes you feel so good, so good...

ENDING
repeat INTRO till Fade Out...

...after 2nd chorus:
         (vib)
e--------------------------------------------------------------------------|
B-----10-----10------10-------------------------------10-10h12p10----------|
G-9b11---9b11---9b11----9b11r9p7-----7-----9b11—9/11-----------------------|
D--------------------------------9p7---------------------------------------|
A--------------------------------------------------------------------------|
E--------------------------------------------------------------------------|

                  (gradually bend while picking)
(vib)
e-------10----10h12-12-12-12-12-12b14-------------12b14r12p10----10--------|
B-10-12----12-------------------------------------------------12----12-----|
G--------------------------------------------------------------------------|
D--------------------------------------------------------------------------|
A--------------------------------------------------------------------------|
E--------------------------------------------------------------------------|


                             (vib)
e---------------------------------------------------------------------------|
B------10h12p10-10-----------------------10------10------10-----------------|
G-9h11-------------97---9-7------7/9b11----9b11----9b11----11r9-------------|
D----------------------9-----------------------------------------7h9-7-7----|
A---------------------------------------------------------------------------|
E---------------------------------------------------------------------------|


                (vib)                                                (vib)
e---------------------------------------------------------------------------|
B---------------------------------------------------------------------------|
G---------------------------------------7-9---7-9-9b11-(11)--11r9---5-------|
D-----------------------------7-9---7-9-----9-------------------------------|
A-9p7-75-5/75---------5-7/9-----9-------------------------------------------|
E-------------------5-7-----------------------------------------------------|

               (gradual)                                 (really fast)
                                        (vib)
e--------------------------------------------------------------------------|
B-----6h8p6-------------------6---8p6--------------------------------------|
G-5h7-------7-7b9r7—------5h7---7-----7-------------5p0--------------------|
D-----------------------------------------------5h7-----5p3p0-5-3-5p3p0----|
A--------------------------------------------------------------------------|
E--------------------------------------------------------------------------|


                                              (vib)
e--------------------------------------------------------------------------|
B--------------------------------------------------------------------6---6-|
G----------------------------------------------------------------5h7---7---|
D-----------3h5p3p0-3p0-----------3----------------3-5-3-0-3-5/7-----------|
A-5p3p0-3h5-------------3h5p3p0-3---5p3p0-3-5------------------------------|
E--------------------------------------------------------------------------|

e---------------------------------------------------------------------------|
B-13p10----13p10-------10-13p10-------------------------------13------13----|
G-------12-------12b14----------12b14r12p10----------10-12b14----(14)-------|
D-------------------------------------------12p10h12------------------------|
A---------------------------------------------------------------------------|
E---------------------------------------------------------------------------|

                          (vib)                          (trem)
e---------------------------------------------------------------------------|
B--------------------------------------------------2-2--333333333333333--2--|
G-12b14r12p10-------10-----------2-2-22-2-/-4-4-4--2-2--222222222222222--2--|
D-------------12-10----12--------3-3-33-3-/-5-5-5--2-2--222222222222222--2--|
A--------------------------------------------------0-0—-000000000000000--0--|
E---------------------------------------------------------------------------|

SUGGESTIONS FOR VERSE FILLS

Verse                           Fill
                                                               (vib)
e--2--2--------------2-2---------------------------------------------------|
B--3--3--------------3-3-------------10------10----------------------------|
G--2--2--------------2-2--------9b11----9b11----9b11r9p7-9---7-7-----------|
D--0--0--------------0-0-----------------------------------9---------------|
A--0--0------3---3p0-0-0---------------------------------------------------|
E--------3h5---5-----------------------------------------------------------|

e--------------------2-2---------------------------------------------------|
B--------------------3-3---------------------------------------------------|
G--------------------2-2-------------7—-7--7----7-7------7-----------------|
D--------------------0-0--------7----7—-7--7h9--7-7--7---7-----------------|
A------------3---3p0-0-0--------7h9------------------7h9-------------------|
E--------3h5---5-----------------------------------------------------------|


Here Again (full credit to duane baldwin):


Intro: Overdriven with slight chorus
e|------2--2--2--2--|------------------5--5--|--5--5---------------------|
B|------3--3--3--3--|------------------5--5--|--5--5---------------------|
G|--4---4--4--4--4--|------------------2--2--|--2--2---------------------|
D|--4---4--4--4--4--|--2--0------------2--2--|--2--2------------0--2-----|
A|--2---2--2--2--2--|--------4--2--0---0--0--|--0--0---0--2--4-----------|
E|------------------|------------------------|------------------------0--|

e|--0------------------------|------2-----2-----2--2---|
B|--0------------------------|------3--2--2--2--3--2---|
G|--1------------------------|------4--2--2--2--4--2---|
D|--2-----2--2---------------|--4---4--2--2--2--4--2---|
A|--2-----2--2----0--2/4--0--|--2---2-----------2------|
E|--0--0--0--0---------------|-------------------------|

e|------2--2--2--2--|------------------5--5--|--5--5---------------------|
B|------3--3--3--3--|------------------5--5--|--5--5---------------------|
G|--4---4--4--4--4--|------------------2--2--|--2--2---------------------|
D|--4---4--4--4--4--|--2--0------------2--2--|--2--2------------0--2-----|
A|--2---2--2--2--2--|--------4--2--0---0--0--|--0--0---0--2--4-----------|
E|------------------|------------------------|------------------------0--|

e|--0------------------------|--2-----2--------2--------|
B|--0------------------------|--3-----3--------3----3---|
G|--1------------------------|--4-----4--------4----4---|
D|--2-----2--2---------------|--4-----4--------4----4---|
A|--2-----2--2----0--2/4--0--|--2--0--2--0--0--2--0h2---|
E|--0--0--0--0---------------|--------------------------|

1st Verse
e|--2--2--2--------0---0------------------------------2---------2---------2--|
B|--3--3--3--------0---0--------------------------3---3---------3---------3--|
G|--4--4--4--------1---1---2--2-------------------4---4---------4---2--2--4--|
D|--4--4--4------------2---2--2--------0------0---4---4---2--2--4---2--2--4--|
A|---------------------2---0--0------2------0-------------0--0--2---0--0--2--|
E|-------------0-------0----------3-------2----------------------------------|

e|-------2--2--2-------0--0--0---5--5--5-------------------------------|
B|----3--3--3--3-------0--0--0---5--5--5-------------------------------|
G|----4--4--4--4-------1--1--1---6--6--6----------0-------------0------|
D|----4--4--4--4-------2--2--2---7--7--7-------------0-------------0---|
A|--0h2----------------2--2--2---7--7--7------2--------------0---------|
E|-----------------0---0--0--0-------------3--------------2------------|

e|--2--------2--------2----------2--2--2--2-------0--0--0--0---5--5--5--5---|
B|--3--------3--------3-------3--3--3--3--3-------0--0--0--0---5--5--5--5---|
G|--4--------4--------4-------4--4--4--4--4-------1--1--1--1---6--6--6--6---|
D|--4--2--2--4--2--2--4-------4--4--4--4--4-------2--2--2--2---7--7--7--7---|
A|-----0--0--2--0--0--2---0h1h2-------------------2--2--2------7--7--7--7---|
E|--------------------------------------------0---0--0--0-------------------|

e|------------------------------2--------2--------2----2--2--2--2--2--2--2--|
B|---------------------------3--3--------3--------3----3--3--3--3--3--3--3--|
G|--------0----------0-------4--4--2--2--4--2--2--4----4--4--4--4--4--4--4--|
D|----------0-----------0----4--4--2--2--4--2--2--4----4--4--4--4--4--4--4--|
A|-----2----------0----------------0--0--2--0--0--2--0h2--------------------|
E|--3----------2------------------------------------------------------------|

e|-----0--0--0--0--0--0---5--5--5--5--------------------------2---|
B|-----0--0--0--0--0--0---5--5--5--5-----------------------3--3---|
G|-----1--1--1--1--1--1---6--6--6--6---------0---------0---4--4---|
D|-----2--2--2--2--2--2---7--7--7--7-----------------------4--4---|
A|-----2--2--2--2--2--2---7--7--7--7------2--------0--------------|
E|--0--0--0--0--0--0--0----------------3--------2-----------------|

e|--------2--------2---|
B|--------3--------3---|
G|--------4--------4---|
D|--------4--------4---| 
A|--0--0--2--0--0--2---|
E|---------------------|

Intro Reprise
e|--------2--2--2--2--|------------------5--5--|--5--5---------------------|
B|--------3--3--3--3--|------------------5--5--|--5--5---------------------|
G|----4---4--4--4--4--|------------------2--2--|--2--2---------------------|
D|----4---4--4--4--4--|--2--0------------2--2--|--2--2------------0--2-----|
A|--0h2---2--2--2--2--|--------4--2--0---0--0--|--0--0---0--2--4-----------|
E|--------------------|------------------------|------------------------0--|

e|--0------------------------|------2-----2-----2--2---|
B|--0------------------------|------3--2--2--2--3--2---|
G|--1------------------------|------4--2--2--2--4--2---|
D|--2-----2--2---------------|--4---4--2--2--2--4--2---|
A|--2-----2--2----0--2/4--0--|--2---2-----------2------|
E|--0--0--0--0---------------|-------------------------|

e|------2--2--2--2--|------------------5--5--|--5--5---------------------|
B|------3--3--3--3--|------------------5--5--|--5--5---------------------|
G|--4---4--4--4--4--|------------------2--2--|--2--2---------------------|
D|--4---4--4--4--4--|--2--0------------2--2--|--2--2------------0--2-----|
A|--2---2--2--2--2--|--------4--2--0---0--0--|--0--0---0--2--4-----------|
E|------------------|------------------------|------------------------0--|

e|--0------------------------|--2---------------------|
B|--0------------------------|--3----3---3----3---3---|
G|--1------------------------|--4----4---4----4---4---|
D|--2-----2--2---------------|--4----4--------4-------|
A|--2-----2--2----0--2/4--0--|--2----2--------2-------|
E|--0--0--0--0---------------|------------------------|

2nd Verse
e|---------------2-----------2-------------------------0------------|
B|-------3----------------3------3------------------0-----0---------|
G|-------4---4------4--4------------4------1-----1-----------1---1--|
D|----4--4-----------------------------4---2--2------------------2--|
A|--0h2--2---------------------------------2---------------------2--|
E|-----------------------------------------0---------------------0--|

e|-----------0----------------------5-------------------3------------3---|
B|--------0-----0----------------5-----5---------------------------------|
G|-----1-----------1----------6-----------6----------0------------0------|
D|--2-------------------7--7----------------------0------------0---------|
A|----------------------7------------------------------------------------|
E|----------------------5----------------------3------------2------------|

e|--------------------2--------------------------------------------2---------|
B|-------------3---------3--2-------3-----------3----3----------3-----3------|
G|----4-----4-----4------------4----4--------4-------4-------4-----------4---|
D|----4--4--------------------------4-----4----------4----4-----------------4|
A|--0h2---------------------------0h2--2-----------0h2-2---------------------|
E|---------------------------------------------------------------------------|

e|-----------0------------------0----------------------5------------------3--|
B|--------------0------------0-----0----------------------5------------3-----|
G|--------1--------1------1-----------1-------------6--------6------0--------|
D|-----2---------------------------------2----7--7---------------------------|
A|--2-----------------------------------------7------------------------------|
E|--0------------------0----------------------5------------------3-----------|

e|------------3------------------------------------------------------------|
B|---------3------------------3---------------------------3--------3-------|
G|------0------------------4--4--4--------4---------4-----4-----4----------|
D|-------------------4--4-----------------4---------4-----4--4-------------|
A|-----------------0h2--------------0--0------0--0------0h2------------2---|
E|--2----------------------------------------------------------------------|

e|-------------2----------------0-------------------0------------------5--5--|
B|----3-----------3----------0-----0-------------0-----0---------------5--5--|
G|----4-----4-------------1-----------1-------1-----------1---6-----6--6--6--|
D|----4--4----------------------------------------------------7--7-----------|
A|--0h2---------------2---------------------------------------7--------------|
E|--------------------0-------------------0-------------------5--------------|

e|------------3---------------3-------------------------------------|
B|---------3---------------3-------3--------3-----------------3-----|
G|------0---------------0----------4-----4-----4-----------4-----4--|
D|---------------------------------4--4-----------------4-----------|
A|------------------0------------0h2---------------0h2--------------|
E|--3------------2--------------------------------------------------|

e|---------------------------------------------------------------|
B|--------------3-------------------3---------------0------------|
G|-----------4------4------------4-----4---------1-----1---------|
D|----4---4---------------4---4------------2--2-----------2------|
A|--0h2-----------------0h2----------------2-----------------2---|
E|-----------------------------------------0---------------------|

e|------------------------5--------5-------------------------------------|
B|-----------0------------5-----------5---------------3------------3-----|
G|--------1-----1---------6-----6--------6---------0-----0------0-----0--|
D|--2--2-----------2------7--7--------------7----------------------------|
A|--2-----------------2---7----------------------------------------------|
E|--0---------------------5---------------------3------------2-----------|

e|---------------------------------------------------------------------------|
B|---------------------------------3--3--3--3--3--3--3--3--3--3--3--3--3--3--|
G|------3-------3-------3-------3--4--4--4--4--4--4--4--4--4--4--4--4--4--4--|
D|--4---4---4---4---4---4---4---4--4--4--4--4--4--4--4--4--4--4--4--4--4--4--|
A|--2-------2-------2-------2------2--2--2--2--2--2--2--2--2--2--2--2--2--2--|
E|---------------------------------------------------------------------------|

Chorus
e|--0---2--2--2--3--2--3--2------------------------------------------------|
B|--0---3--3--3--3--3--3--3------------3--2--------------------1-----------|
G|--1---2--2--2--2--2--2--2---2--2--2--2--2-----------------------0--------|
D|--2---0--0--0--0--0--0--0---2--2--2--4--2----------------2------------0--|
A|----------------------------0--0--0--0--0---0--2--0--3-------------2-----|
E|-------------------------------------------------------------------------|

e|---------3--3--3--3---9/15--15-15-15-15-15-15-15-15-15-15-15-15\-----|
B|---------3--3--3--3---9/15--15-15-15-15-15-15-15-15-15-15-15-15\-----|
G|-----2---0--0--0--0---------12-12-12-12-12-12-12-12-12-12-12-12\-----|
D|--2------0------------------12-12-12-12-12-12-12-12-12-12-12-12\-----|
A|--0------2-----------------------------------------------------------|
E|---------3-----------------------------------------------------------|

e|--2--2--2--3--2--3--2----------------------------------------------------3-|
B|--3--3--3--3--3--3--3-----------3--2------------------1------------------3-|
G|--2--2--2--2--2--2--2--2--2--2--2--2---------------------0-----0------2--0-|
D|--0--0--0--0--0--0--0--2--2--2--4--2--------------2----------------2-----0-|
A|-----------------------0--0--0--0--0--0--2--0--3------------2------0-----2-|
E|-------------------------------------------------------------------------3-|

Solo Backing
e|---------------------2--------------------2------------------0--------|
B|------------------3-----3-----3--------3-----3------------0-----0-----|
G|--2------4-----4--------------4-----4-----------4------1-----------1--|
D|--2------4--4-----------------4--4------------------2-----------------|
A|--0---0h-2------------------0h2---------------------2-----------------|
E|----------------------------------------------------0-----------------|

e|----------0-----------------5---------------------3-------------3-------|
B|-------0-----0-----------5-----5----------------------------------------|
G|-----1----------1--6--6-----------6-----------0-------------0-----------|
D|--2----------------7-----------------------0-------------0--------------|
A|--2----------------7----------------------------------------------------|
E|--1----------------5-------------------3--------------2-----------------|

e|----------------------------------------2------------------2------|
B|-------3--3--3-----------------------3-----3------------3-----3---|
G|----4--4--4--4--2--4--2--4----4---4--------------4---4------------|
D|----4--4--4--4--2--4--2--4----4------------------4----------------|
A|--0h2--2--2--2--0--2--0--2--0h2----------------0h2----------------|
E|------------------------------------------------------------------|

e|-----------0------------------0-------------------5------------------3--|
B|--------0-----0------------0-----0-------------5-----5------------------|
G|-----1-----------1------1-----------1---6---6-----------6---------0-----|
D|--2-----------------2-------------------7----------------------0--------|
A|--2-----------------2-------------------7-------------------------------|
E|--0-----------------0-------------------5-------------------3-----------|

e|-------------3----------------------------------------2-----------------2--|
B|----------------------3--3-----------------3-------------3-----3-----------|
G|---------0---------4--4--4--2--4--2--4-----4-------4-----------4-----4-----|
D|------0------------4--4--4--2--4--2--4-----4----4--------------4--4--------|
A|-----------------0h2--2--2--0--2--0--2---0h2-2---------------0h2-----------|
E|--2------------------------------------------------------------------------|

e|------------------0------------------0-----------------5--------------3--|
B|--3------------------0------------------0-----------------5--------------|
G|---------------1-----------------1---------6--------6--------------0-----|
D|------------2-----------------2------------7-----7--------------0--------|
A|---------2-----------------2---------------7--7--------------------------|
E|------0-----------------0------------------5-----------------3-----------|

e|----------------2-----2--------------------------2--------------------2----|
B|-------------3--3--3--3----3----3----3--------3-----3-----3--------3-----3-|
G|--------0----4--4--4--4----4----4----4-----4-----------4--4-----4----------|
D|-----0-------4--4--4--4----4----4----4--4-----------------4--4-------------|
A|-----------0h2--2--2--2--0h2--0h2--0h2--------------------2----------------|
E|--2------------------------------------------------------------------------|

e|-----------------0--------------------0--------------------5---------|
B|--------------0-----0--------------0-----0--------------5-----5------|
G|--4--------1-----------1--------1-----------1--6-----6-----------6---|
D|-----2--2-----------------2--2-----------------7--7------------------|
A|-----2--------------------2--------------------7---------------------|
E|-----0--------------------0--------------------5---------------------|

e|--------------3---------------3-------------------------------------------|
B|-----------------------------------3--3--3--3-----------------------------|
G|----------0---------------0--------4--4--4--4--2--2--2--2--2--2--2--2--2--|
D|------0---------------0------------4--4--4--4--2--2--2--2--2--2--2--2--2--|
A|---------------------------------0h2--2--2--2--0--0--0--0--0--0--0--0--0--|
E|--3---------------2-------------------------------------------------------|

e|-------------------------2--------------------2--------------------0-------|
B|-------------3--------3-----3-----3--------3-----3--------------0-----0----|
G|--2--2--2----4-----4-----------4--4-----4-----------4--------1-----------1-|
D|--2--2--2----4--4-----------------4--4-----------------2--2----------------|
A|--0--0--0--0h2--------------------2--------------------2-------------------|
E|-------------------------------------------------------0-------------------|

e|--------------0--------------------5-----------------3-----------3--------|
B|-----------0-----0--------------5-----5-----------------------------3--3--|
G|--------1-----------1--6-----6-----------6--------0-----------0-----4--4--|
D|--2--2-----------------7--7--------------------0-----------0--------4--4--|
A|--2--------------------7--------------------------------------------2--2--|
E|--0--------------------5--------------------3-----------2-----------------|

e|-----------------------------------0--0--0--0--0--5--5-----------3---|
B|--3--3--3--3--------3--3--3--3--3--0--0--0--0--0--5--5---------------|
G|--4--4--4--4--2--2--4--4--4--4--4--1--1--1--1--1--6--6--------0------|
D|--4--4--4--4--2--2--4--4--4--4--4--2--2--2--2--2--7--7-----0---------|
A|--2--2--2--2--0--0--2--2--2--2--2--2--2--2--2--2--7--7---------------|
E|-----------------------------------0--0--0--0--0--5--5--3------------|

e|-----------3---------------------------------------------------------------|
B|----------------3--3--3--3--3--3--3--3--3--3--3--3--3--3--3--3--3--3--3----|
G|--------0-------4--4--4--4--4--4--4--4--4--4--4--4--4--4--4--4--4--4--4----|
D|-----0----------4--4--4--4--4--4--4--4--4--4--4--4--4--4--4--4--4--4--4----|
A|--------------0h2--2--2--2--2--2--2--2--2--2--2--2--2--2--2--2--2--2--2----|
E|--2------------------------------------------------------------------------|

Chorus
e|-----2--2--2--3--2--3--2------------------------------------------------|
B|-----3--3--3--3--3--3--3------------3--2--------------------1-----------|
G|-----2--2--2--2--2--2--2---2--2--2--2--2-----------------------0--------|
D|-----0--0--0--0--0--0--0---2--2--2--4--2----------------2------------0--|
A|---------------------------0--0--0--0--0---0--2--0--3-------------2-----|
E|------------------------------------------------------------------------|

e|---------3--3--3--3---9/15--15-15-15-15-15-15-15-15-15-15-15-15\-----|
B|---------3--3--3--3---9/15--15-15-15-15-15-15-15-15-15-15-15-15\-----|
G|-----2---0--0--0--0---------12-12-12-12-12-12-12-12-12-12-12-12\-----|
D|--2------0------------------12-12-12-12-12-12-12-12-12-12-12-12\-----|
A|--0------2-----------------------------------------------------------|
E|---------3-----------------------------------------------------------|

e|--2--2--2--3--2--3--2------------------------------------------------------|
B|--3--3--3--3--3--3--3-----------3--2------------------1--------------------|
G|--2--2--2--2--2--2--2--2--2--2--2--2---------------------0-----0------2----|
D|--0--0--0--0--0--0--0--2--2--2--4--2--------------2----------------2-------|
A|-----------------------0--0--0--0--0--0--2--0--3------------2------0-------|
E|---------------------------------------------------------------------------|

e|--3--3--9/15--15-----|
B|--3--3--9/15--15-----|
G|--0--0--------12-----|
D|--0-----------12-----|
A|--2------------------|
E|--3------------------|

2nd Solo Backing
e|--3--3--3--3--3--3--3--3--3--3--3--3--3--3--2--2--2--3--2--3--2----------|
B|--3--3--3--3--3--3--3--3--3--3--3--3--3--3--3--3--3--3--3--3--3--2--2----|
G|--0--0--0--0--0--0--0--0--0--0--0--0--0--0--2--2--2--2--2--2--2--2--2----|
D|--0--0--0--0--0--0--0--0--0--0--0--0--0--0--0--0--0--0--0--0--0--0--0----|
A|--2--2--2--2--2--2--2--2--2--2--2--2--2--2-------------------------------|
E|--3--3--3--3--3--3--3--3--3--3--3--3--3--3-------------------------------|

e|--------------------------------------------3----|
B|-----3--2-----------------1-----------------3----|
G|--2--2--2--------------------0--4--4--2--2--0----|
D|--2--4--2--------------2--------4--4--2--2--0----|
A|--0--0--0--0--2--0--3-----------2--2--0--0--2----|
E|--------------------------------------------3----|

Main Solo
e|---------------------------------------------------------------------------|
B|---------------------------------------------------------------------------|
G|---------------------------------------------------------------------------|
D|------------------------------------------------------5--4--0--------------|
A|--0--2--2/7-----7--5--7/9\7---7/9\7---7h9p7-5\(2)--0------------2--0--0--0-|
E|-------------0-------------------------------------------------------------|

e|---------------------------------------------------------------------------|
B|---------------------------------------------------------10b-10b-10b-10br--|
G|-------7~~-----7h9p7--9br--7--9br--7--9--7-----7h9p7--9b-------------------|
D|--6/9-------9-------------------------------9------------------------------|
A|---------------------------------------------------------------------------|
E|---------------------------------------------------------------------------|

e|------------------------------------------------------------------------|
B|--9--7-----------------------------------------------10--12--13b--13b---|
G|--------9--7--9br-7-9-7-----7h9p7--------7--9--9/11---------------------|
D|-------------------------9---------7--9---------------------------------|
A|------------------------------------------------------------------------|
E|------------------------------------------------------------------------|

e|----------10--12--12br--10------12p10------10--------------------------|
B|--10--12--------------------12---------12------12---------10--12--13b--|
G|---------------------------------------------------9--11---------------|
D|-----------------------------------------------------------------------|
A|-----------------------------------------------------------------------|
E|-----------------------------------------------------------------------|

e|-----------------------------------------------------------------------|
B|------12--10~~---------------------------------------------------------|
G|--11-------------------(7)--9b--9pb--9pb--9pb--9pbr--9--9--7--10p7-----|
D|-----------------7--9-----------------------------------------------9--|
A|-----------------------------------------------------------------------|
E|-----------------------------------------------------------------------| 

e|------------------------------------------------------------------------|
B|------------------------------------------------------------------------|
G|--10p9p7-----10p9p7-----10--9--7-------------------------------7--------|
D|----------9----------9------------9p7-----7--9br--9p7-----7h9-----9-----|
A|---------------------------------------9---------------9----------------|
E|------------------------------------------------------------------------|

e|---------------------------------------------------17-------17-------17---|
B|------------------15--------------15--17--15--17b------17b------17b-------|
G|----------14--16------16--16--16------------------------------------------|
D|--14--16------------------------------------------------------------------|
A|--------------------------------------------------------------------------|
E|--------------------------------------------------------------------------|

e|-------17-------17--------------------------------17b--17b--17--17b--17---|
B|--17b------17b------17br--17--15--17--15----------------------------------|
G|------------------------------------------16--16--------------------------|
D|--------------------------------------------------------------------------|
A|--------------------------------------------------------------------------|
E|--------------------------------------------------------------------------|

e|--17b--17b--17--14h17p14--12----------14b--14b--14b--14--14br--14------12--|
B|------------------------------15--15-------------------------------15------|
G|---------------------------------------------------------------------------|
D|---------------------------------------------------------------------------|
A|---------------------------------------------------------------------------|
E|---------------------------------------------------------------------------|

e|---------------------------------------------------------------------17---|
B|--15--12--------------17br--15--17--15--------------17--15--17--17b-------|
G|------------------14--------------------16--14--16------------------------|
D|----------14--16----------------------------------------------------------|
A|--------------------------------------------------------------------------|
E|--------------------------------------------------------------------------|

e|-------17--17-------17--17-------17--17-------17--17-------17--17--------|
B|--17b----------17b----------17b----------17b----------17b----------17b---|
G|-------------------------------------------------------------------------|
D|-------------------------------------------------------------------------|
A|-------------------------------------------------------------------------|
E|-------------------------------------------------------------------------|


e|--17--17-------------------------------------------------------------------|
B|----------17b--15--17--15----------15--19b------15--17--15----------15b--12|
G|---------------------------16--16-----------16--------------14--16---------|
D|---------------------------------------------------------------------------|
A|---------------------------------------------------------------------------|
E|---------------------------------------------------------------------------|

e|----------------------------------------------------------------------------|
B|--14--15--14--15--14--15--14--12--14--15--14--12--14--15--14--12--14--15----|
G|----------------------------------------------------------------------------|
D|----------------------------------------------------------------------------|
A|----------------------------------------------------------------------------|
E|----------------------------------------------------------------------------|

e|--------------------------------------------------------------------------|
B|--14--15--14--12----------------------------------------------------------|
G|------------------14--13--14--13--14--13--14--13--14b--14pb--14pb--14pb---|
D|--------------------------------------------------------------------------|
A|--------------------------------------------------------------------------|
E|--------------------------------------------------------------------------|

e|---------------------------------------------------------------------------|
B|---------------------------------------------------------------------------|
G|--14pb--14pb--14pb--14b-------7--9p7-----7--9--9br--7--------7--10p9p7-----|
D|-------------------------7h9----------9----------------9--9-------------9--|
A|---------------------------------------------------------------------------|
E|---------------------------------------------------------------------------|

e|---------------------------------------------------------------------------|
B|---------------------------------------------------------------------------|
G|--10p9p7-----7--9--10p9p7--------------------------------------------------|
D|----------9----------------9--8--7-----------------------------------------|
A|------------------------------------9--8--7--5--7--5----------7p5-----7--9-|
E|------------------------------------------------------7--5/7-------7-------|

e|---------------------------------------------------------------------------|
B|---------------------------------------------10------10--12--12br--10--12--|
G|-----------7--9b--9pbr--7--9--------7--9/11------11------------------------|
D|--7--8--9---------------------9--9-----------------------------------------|
A|---------------------------------------------------------------------------|
E|---------------------------------------------------------------------------|

e|------10--12--10--12b--12pb--12pb--12pb--12pb--12pb--12pb--12pb--12pbr--12-|
B|--12-----------------------------------------------------------------------|
G|---------------------------------------------------------------------------|
D|---------------------------------------------------------------------------|
A|---------------------------------------------------------------------------|
E|---------------------------------------------------------------------------|

e|--10----------------|
B|------12b--10-------|
G|---------------11---|
D|--------------------|
A|--------------------|
E|--------------------|

End Solo
e|----------------------------------------------12b--12b--12pbr--12p10------|
B|---------------------------10--10--10h12--10--------------------------12--|
G|--------7--9--7--9b--7/11-------------------------------------------------|
D|--7--9--------------------------------------------------------------------|
A|--------------------------------------------------------------------------|
E|--------------------------------------------------------------------------|

e|--10--------------------------------------------------|
B|------12--10------------------------------------------|
G|--------------11--7--------7--9b--9pbr--7-------------|
D|---------------------7--9------------------9--7-------|
A|-------------------------------------------------10---|
E|------------------------------------------------------|


What You're Doing:


Song progression:

[Verse]:

   e    q       E     s s s e   q        E     s E     s s s e   s E
e:----|--------------------------------|-------------------------------|
B:----|--------------------------------|-------------------------------|
G:----|--------------------------------|-------------------------------|
D:----|--------------------------------|---------------------5---------|
A:----|---------------------5---7------|-------------------------7-----|
E:-7\-|-0-------3-----4-5h7------------|-0-----0-3-----4-5h7-------7\--|

   q       E     s s s e   q         E     s E     s s s e   s E
e:---------------------------------|-------------------------------|
B:---------------------------------|-------------------------------|
G:---------------------------------|-------------------------------|
D:---------------------------------|---------------------5---------|
A:---------------------5---7-------|-------------------------7-----|
E:-0-------3-----4-5h7-------------|-0-----0-3-----4-5h7-------7\--|

       A5
        q                q               q             q
e:-----------------------------------------------------------------|
B:-----------------------------------------------------------------|
G:-----------------------------------------------------------------|
D:------7----------------7---------------7-------------7-----------|
A:------7----------------7---------------7-------------7-----------|
E:------5----------------5---------------5-------------5-----------|
Well I see you standing there with your finger in the air,

                                                         G5
        q                q               q             s E
e:-----------------------------------------------------------------|
B:-----------------------------------------------------------------|
G:-----------------------------------------------------------------|
D:------7----------------7---------------7-------------7-5---------|
A:------7----------------7---------------7-------------7-5---------|
E:------5----------------5---------------5-------------5-3---------|
        Everything we   do,        you wanna leave it up to

   q       E     s s s e   q         E     s E     s s s e   s E
e:---------------------------------|-------------------------------|
B:---------------------------------|-------------------------------|
G:---------------------------------|-------------------------------|
D:---------------------------------|---------------------5---------|
A:---------------------5---7-------|-------------------------7-----|
E:-0-------3-----4-5h7-------------|-0-----0-3-----4-5h7-------7\--|
  you.

       A5
        q                q               q             q
e:-----------------------------------------------------------------|
B:-----------------------------------------------------------------|
G:-----------------------------------------------------------------|
D:------7----------------7---------------7-------------7-----------|
A:------7----------------7---------------7-------------7-----------|
E:------5----------------5---------------5-------------5-----------|
   Who do you think you  are,      you think you are a star,

                                                         G5
        q                q               q             s E
e:-----------------------------------------------------------------|
B:-----------------------------------------------------------------|
G:-----------------------------------------------------------------|
D:------7----------------7---------------7-------------7-5---------|
A:------7----------------7---------------7-------------7-5---------|
E:------5----------------5---------------5-------------5-3---------|
      Tryin' to run the town,        always tryin' to put us

   q       E     s s s e   q         E     s E     s s s e   s E
e:---------------------------------|-------------------------------|
B:---------------------------------|-------------------------------|
G:---------------------------------|-------------------------------|
D:---------------------------------|---------------------5---------|
A:---------------------5---7-------|-------------------------7-----|
E:-0-------3-----4-5h7-------------|-0-----0-3-----4-5h7-------7\--|
  down.

           B5
           q                q              q                 q
e:-----------------------------------------------------------------|
B:-----------------------------------------------------------------|
G:-----------------------------------------------------------------|
D:---------9----------------9--------------9-----------------9-----|
A:---------9----------------9--------------9-----------------9-----|
E:---------7----------------7--------------7-----------------7-----|
Well you think that you're right,   you think you're out of sight,

    A5                                                   G5
    H+s                                                  E
e:-----------------------------------------------------------------|
B:-----------------------------------------------------------------|
G:-----------------------------------------------------------------|
D:--7----------------------------------------------------5---------|
A:--7----------------------------------------------------5---------|
E:--5----------------------------------------------------3---------|
   Tell me something mister, why'd you have to make us so up-

   q       E     s s s e   q         E     s E     s s s e   s E
e:---------------------------------|-------------------------------|
B:---------------------------------|-------------------------------|
G:---------------------------------|-------------------------------|
D:---------------------------------|---------------------5---------|
A:---------------------5---7-------|-------------------------7-----|
E:-0-------3-----4-5h7-------------|-0-----0-3-----4-5h7-------7\--|
 -tight?                                                  Well you

       A5
       q                 q          q               q
e:-----------------------------------------------------------------|
B:-----------------------------------------------------------------|
G:-----------------------------------------------------------------|
D:-----7-----------------7----------7---------------7--------------|
A:-----7-----------------7----------7---------------7--------------|
E:-----5-----------------5----------5---------------5--------------|
      say you've been tryin', you know that you're lyin'.

                                                           G5
    q                   q            q                   s E
e:-----------------------------------------------------------------|
B:-----------------------------------------------------------------|
G:-----------------------------------------------------------------|
D:--7-------------------7------------7-------------------7-5-------|
A:--7-------------------7------------7-------------------7-5-------|
E:--5-------------------5------------5-------------------5-3-------|
I think you need some groovin', who do you think you're foolin'

   q       E     s s s e   q         E     s E     s s s e   s E
e:---------------------------------|-------------------------------|
B:---------------------------------|-------------------------------|
G:---------------------------------|-------------------------------|
D:---------------------------------|---------------------5---------|
A:---------------------5---7-------|-------------------------7-----|
E:-0-------3-----4-5h7-------------|-0-----0-3-----4-5h7-------7\--|
  now?

          A5
          q              q               q              q
e:-----------------------------------------------------------------|
B:-----------------------------------------------------------------|
G:-----------------------------------------------------------------|
D:--------7--------------7---------------7--------------7----------|
A:--------7--------------7---------------7--------------7----------|
E:--------5--------------5---------------5--------------5----------|
Well you better start changin',    your life needs rearrangin',

                                                       G5
        q                q             q             s E
e:-----------------------------------------------------------------|
B:-----------------------------------------------------------------|
G:-----------------------------------------------------------------|
D:------7----------------7-------------7-------------7-5-----------|
A:------7----------------7-------------7-------------7-5-----------|
E:------5----------------5-------------5-------------5-3-----------|
   You better do some talkin' or you better do some walkin'

   q       E     s s s e   q         E     s E     s s s e   s E
e:---------------------------------|-------------------------------|
B:---------------------------------|-------------------------------|
G:---------------------------------|-------------------------------|
D:---------------------------------|---------------------5---------|
A:---------------------5---7-------|-------------------------7-----|
E:-0-------3-----4-5h7-------------|-0-----0-3-----4-5h7-------7\--|
  now.

           B5
           q                q           q                  q
e:-----------------------------------------------------------------|
B:-----------------------------------------------------------------|
G:-----------------------------------------------------------------|
D:---------9----------------9-----------9------------------9-------|
A:---------9----------------9-----------9------------------9-------|
E:---------7----------------7-----------7------------------7-------|
Yeah you think that you're right, you think you're outta sight,

    A5                                                   G5
    H+s                                                  E
e:-----------------------------------------------------------------|
B:-----------------------------------------------------------------|
G:-----------------------------------------------------------------|
D:--7----------------------------------------------------5---------|
A:--7----------------------------------------------------5---------|
E:--5----------------------------------------------------3---------|
  Tell me something mister, why'd you have to make us so up-

   q       E     s s s e   q         E     s E     s s s e   s E
e:---------------------------------|-------------------------------|
B:---------------------------------|-------------------------------|
G:---------------------------------|-------------------------------|
D:---------------------------------|---------------------5---------|
A:---------------------5---7-------|-------------------------7-----|
E:-0-------3-----4-5h7-------------|-0-----0-3-----4-5h7-------7\--|
 -tight?

   s s s s s s s   s s s s s s s   s s s s s s s s s s s s s s s s
e:-----------------------------------------------------------------|
B:-----------------------------------------------------------------|
G:-9-8-7-----------9-8-7-----------9-8-7---7-----------------------|
D:-------9-8-7-5---------9-8-7-5---------9---9-7-5-7-5---5---------|
A:-----------------------------------------------------7---7-5-----|
E:-------------------------------------------------------------7s5\|

   q       E     s s s e   q         E     s E     s s s e   s E
e:---------------------------------|-------------------------------|
B:---------------------------------|-------------------------------|
G:---------------------------------|-------------------------------|
D:---------------------------------|---------------------5---------|
A:---------------------5---7-------|-------------------------7-----|
E:-0-------3-----4-5h7-------------|-0-----0-3-----4-5h7-------7\--|

   s s s s s s s   s s s s s s s   s s s s s s s s s s s s s s s s
e:-----------------------------------------------------------------|
B:-----------------------------------------------------------------|
G:-9-8-7-----------9-8-7-----------9-8-7---7-----------------------|
D:-------9-8-7-5---------9-8-7-5---------9---9-7-5-7-5---5---------|
A:-----------------------------------------------------7---7-5-----|
E:-------------------------------------------------------------7s5\|

   q       E     s s s e   q         E     s E     s s s e   s E
e:---------------------------------|-------------------------------|
B:---------------------------------|-------------------------------|
G:---------------------------------|-------------------------------|
D:---------------------------------|---------------------5---------|
A:---------------------5---7-------|-------------------------7-----|
E:-0-------3-----4-5h7-------------|-0-----0-3-----4-5h7-------7\--|

            s s s s s s s s s s s s s s e
e:-----------------------------------------------------------------|
B:-----------------------------------------------------------------|
G:------------------------4-5-4-5-6-7-6----------------------------|
D:----------5-4-5-6-7-6-7---------------5\-------------------------|
A:-----------------------------------------------------------------|
E:-----------------------------------------------------------------|

   q       E     s s s e   q         E     s E     s s s e   s E
e:---------------------------------|-------------------------------|
B:---------------------------------|-------------------------------|
G:---------------------------------|-------------------------------|
D:---------------------------------|---------------------5---------|
A:---------------------5---7-------|-------------------------7-----|
E:-0-------3-----4-5h7-------------|-0-----0-3-----4-5h7-------7\--|

[Chorus]:
          A5
          q              q               q              q
e:-----------------------------------------------------------------|
B:-----------------------------------------------------------------|
G:-----------------------------------------------------------------|
D:--------7--------------7---------------7--------------7----------|
A:--------7--------------7---------------7--------------7----------|
E:--------5--------------5---------------5--------------5----------|
     I  know           what    you're   do           - in',

                                                       G5
        q                q             q             s E
e:-----------------------------------------------------------------|
B:-----------------------------------------------------------------|
G:-----------------------------------------------------------------|
D:------7----------------7-------------7-------------7-5-----------|
A:------7----------------7-------------7-------------7-5-----------|
E:------5----------------5-------------5-------------5-3-----------|
               all     that       you've  been      do-in'

   q       E     s s s e   q         E     s E     s s s e   s E
e:---------------------------------|-------------------------------|
B:---------------------------------|-------------------------------|
G:---------------------------------|-------------------------------|
D:---------------------------------|---------------------5---------|
A:---------------------5---7-------|-------------------------7-----|
E:-0-------3-----4-5h7-------------|-0-----0-3-----4-5h7-------7\--|
 wrong.

          A5
          q              q               q              q
e:-----------------------------------------------------------------|
B:-----------------------------------------------------------------|
G:-----------------------------------------------------------------|
D:--------7--------------7---------------7--------------7----------|
A:--------7--------------7---------------7--------------7----------|
E:--------5--------------5---------------5--------------5----------|
     I  don't  know    what    you're   fee          - lin',

                                                       G5
        q                q             q             s E
e:-----------------------------------------------------------------|
B:-----------------------------------------------------------------|
G:-----------------------------------------------------------------|
D:------7----------------7-------------7-------------7-5-----------|
A:------7----------------7-------------7-------------7-5-----------|
E:------5----------------5-------------5-------------5-3-----------|
           oh,                  but you've   been   feelin'

   q       E     s s s e   q         E     s E     s s s e   s E
e:---------------------------------|-------------------------------|
B:---------------------------------|-------------------------------|
G:---------------------------------|-------------------------------|
D:---------------------------------|---------------------5---------|
A:---------------------5---7-------|-------------------------7-----|
E:-0-------3-----4-5h7-------------|-0-----0-3-----4-5h7-------7\--|
  long.

           B5
           q              q             q                q
e:-----------------------------------------------------------------|
B:-----------------------------------------------------------------|
G:-----------------------------------------------------------------|
D:---------9--------------9-------------9----------------9---------|
A:---------9--------------9-------------9----------------9---------|
E:---------7--------------7-------------7----------------7---------|
 Well you think             that you're right,

    A5                                                   G5
    H+s                                                  E
e:-----------------------------------------------------------------|
B:-----------------------------------------------------------------|
G:-----------------------------------------------------------------|
D:--7----------------------------------------------------5---------|
A:--7----------------------------------------------------5---------|
E:--5----------------------------------------------------3---------|
   Tell me something mister,               why'd you have to

   q       E     s s s e   q         E     s E     s s s e   s E
e:---------------------------------|-------------------------------|
B:---------------------------------|-------------------------------|
G:---------------------------------|-------------------------------|
D:---------------------------------|---------------------5---------|
A:---------------------5---7-------|-------------------------7-----|
E:-0-------3-----4-5h7-------------|-0-----0-3-----4-5h7-------7\--|
  make us so uptight?                                   Oh yeah!

[Guitar Solo] over verse progression:

       A5
        q                q               q             q
e:-----------------------------------------------------------------|
B:-----------------------------------------------------------------|
G:-----------------------------------------------------------------|
D:------7----------------7---------------7-------------7-----------|
A:------7----------------7---------------7-------------7-----------|
E:------5----------------5---------------5-------------5-----------|

                                                         G5
        q                q               q             s E
e:-----------------------------------------------------------------|
B:-----------------------------------------------------------------|
G:-----------------------------------------------------------------|
D:------7----------------7---------------7-------------7-5---------|
A:------7----------------7---------------7-------------7-5---------|
E:------5----------------5---------------5-------------5-3---------|

   q       E     s s s e   q         E     s E     s s s e   s E
e:---------------------------------|-------------------------------|
B:---------------------------------|-------------------------------|
G:---------------------------------|-------------------------------|
D:---------------------------------|---------------------5---------|
A:---------------------5---7-------|-------------------------7-----|
E:-0-------3-----4-5h7-------------|-0-----0-3-----4-5h7-------7\--|

       A5
        q                q               q             q
e:-----------------------------------------------------------------|
B:-----------------------------------------------------------------|
G:-----------------------------------------------------------------|
D:------7----------------7---------------7-------------7-----------|
A:------7----------------7---------------7-------------7-----------|
E:------5----------------5---------------5-------------5-----------|

                                                         G5
        q                q               q             s E
e:-----------------------------------------------------------------|
B:-----------------------------------------------------------------|
G:-----------------------------------------------------------------|
D:------7----------------7---------------7-------------7-5---------|
A:------7----------------7---------------7-------------7-5---------|
E:------5----------------5---------------5-------------5-3---------|

   q       E     s s s e   q         E     s E     s s s e   s E
e:---------------------------------|-------------------------------|
B:---------------------------------|-------------------------------|
G:---------------------------------|-------------------------------|
D:---------------------------------|---------------------5---------|
A:---------------------5---7-------|-------------------------7-----|
E:-0-------3-----4-5h7-------------|-0-----0-3-----4-5h7-------7\--|

           B5
           q                q              q                 q
e:-----------------------------------------------------------------|
B:-----------------------------------------------------------------|
G:-----------------------------------------------------------------|
D:---------9----------------9--------------9-----------------9-----|
A:---------9----------------9--------------9-----------------9-----|
E:---------7----------------7--------------7-----------------7-----|

    A5                                                   G5
    H+s                                                  E
e:-----------------------------------------------------------------|
B:-----------------------------------------------------------------|
G:-----------------------------------------------------------------|
D:--7----------------------------------------------------5---------|
A:--7----------------------------------------------------5---------|
E:--5----------------------------------------------------3---------|

   q       E     s s s e   q         E     s E     s s s e   s E
e:---------------------------------|-------------------------------|
B:---------------------------------|-------------------------------|
G:---------------------------------|-------------------------------|
D:---------------------------------|---------------------5---------|
A:---------------------5---7-------|-------------------------7-----|
E:-0-------3-----4-5h7-------------|-0-----0-3-----4-5h7-------7\--|

   s s s s s s s s s s s s s s s s    s s s s s s s s s s s s s s s s
e:---------------------------------|---------------------------------|
B:---------------------------------|---------------------------------|
G:---------------------------------|---------------------------------|
D:---------------------------4-5-7-|---------------------------4-5-7-|
A:-------4-4-4-5-5-5-6-6-6-7-------|-------4-4-4-5-5-5-6-6-6-7-------|
E:-5-5-5---------------------------|-5-5-5---------------------------|

   q       E     s s s e   q         E     s E     s s s e   s E
e:---------------------------------|-------------------------------|
B:---------------------------------|-------------------------------|
G:---------------------------------|-------------------------------|
D:---------------------------------|---------------------5---------|
A:---------------------5---7-------|-------------------------7-----|
E:-0-------3-----4-5h7-------------|-0-----0-3-----4-5h7-------7\--|

   s s s s s s s s s s s s s s s s   s s s s s s s s s s s s s s s s
e:---------------------------------|---------------------------------|
B:---------------------------------|---------------------------------|
G:---------------------------------|---------------------------------|
D:---------------------------4-5-7-|---------------------------4-5-7-|
A:-------4-4-4-5-5-5-6-6-6-7-------|-------4-4-4-5-5-5-6-6-6-7-------|
E:-5-5-5---------------------------|-5-5-5---------------------------|

   q       E     s s s e   q         E     s E     s s s e   s E
e:---------------------------------|-------------------------------|
B:---------------------------------|-------------------------------|
G:---------------------------------|-------------------------------|
D:---------------------------------|---------------------5---------|
A:---------------------5---7-------|-------------------------7-----|
E:-0-------3-----4-5h7-------------|-0-----0-3-----4-5h7-------7\--|

            s s s s s s s s s s s s s s s
e:-----------------------------------------------------------------|
B:-----------------------------------------------------------------|
G:-----------------------------------------------------------------|
D:----------------------------------7-9-7--------------------------|
A:----------------6-6-6-7-7-7-8-8-9--------------------------------|
E:----------7-7-7--------------------------------------------------|

   q       E     s s s e   q         E     s E     s s s e   s E
e:---------------------------------|-------------------------------|
B:---------------------------------|-------------------------------|
G:---------------------------------|-------------------------------|
D:---------------------------------|---------------------5---------|
A:---------------------5---7-------|-------------------------7-----|
E:-0-------3-----4-5h7-------------|-0-----0-3-----4-5h7-------7\--|

   s s s s s s s   s s s s s s s   s s s s s s s s s s s s s s s s
e:-----------------------------------------------------------------|
B:-----------------------------------------------------------------|
G:-9-8-7-----------9-8-7-----------9-8-7---7-----------------------|
D:-------9-8-7-5---------9-8-7-5---------9---9-7-5-7-5---5---------|
A:-----------------------------------------------------7---7-5-----|
E:-------------------------------------------------------------7s5\|

   q       E     s s s e   q         E     s E     s s s e   s E
e:---------------------------------|-------------------------------|
B:---------------------------------|-------------------------------|
G:---------------------------------|-------------------------------|
D:---------------------------------|---------------------5---------|
A:---------------------5---7-------|-------------------------7-----|
E:-0-------3-----4-5h7-------------|-0-----0-3-----4-5h7-------7\--|

   s s s s s s s   s s s s s s s   s s s s s s s s s s s s s s s s
e:-----------------------------------------------------------------|
B:-----------------------------------------------------------------|
G:-9-8-7-----------9-8-7-----------9-8-7---7-----------------------|
D:-------9-8-7-5---------9-8-7-5---------9---9-7-5-7-5---5---------|
A:-----------------------------------------------------7---7-5-----|
E:-------------------------------------------------------------7s5\|

   q       E     s s s e   q         E     s E     s s s e   s E
e:---------------------------------|-------------------------------|
B:---------------------------------|-------------------------------|
G:---------------------------------|-------------------------------|
D:---------------------------------|---------------------5---------|
A:---------------------5---7-------|-------------------------7-----|
E:-0-------3-----4-5h7-------------|-0-----0-3-----4-5h7-------7\--|

            s s s s s s s s s s s s s s e
e:-----------------------------------------------------------------|
B:-----------------------------------------------------------------|
G:------------------------4-5-4-5-6-7-6----------------------------|
D:----------5-4-5-6-7-6-7---------------5\-------------------------|
A:-----------------------------------------------------------------|
E:-----------------------------------------------------------------|

   q       E     s s s e   q         E     s E     s s s e   s E
e:---------------------------------|-------------------------------|
B:---------------------------------|-------------------------------|
G:---------------------------------|-------------------------------|
D:---------------------------------|---------------------5---------|
A:---------------------5---7-------|-------------------------7-----|
E:-0-------3-----4-5h7-------------|-0-----0-3-----4-5h7-------7\--|

[Chorus]:

          A5
          q              q               q              q
e:-----------------------------------------------------------------|
B:-----------------------------------------------------------------|
G:-----------------------------------------------------------------|
D:--------7--------------7---------------7--------------7----------|
A:--------7--------------7---------------7--------------7----------|
E:--------5--------------5---------------5--------------5----------|
     I  know           what    you're   do           - in',

                                                       G5
        q                q             q             s E
e:-----------------------------------------------------------------|
B:-----------------------------------------------------------------|
G:-----------------------------------------------------------------|
D:------7----------------7-------------7-------------7-5-----------|
A:------7----------------7-------------7-------------7-5-----------|
E:------5----------------5-------------5-------------5-3-----------|
               all     that       you've  been      do-in'

   q       E     s s s e   q         E     s E     s s s e   s E
e:---------------------------------|-------------------------------|
B:---------------------------------|-------------------------------|
G:---------------------------------|-------------------------------|
D:---------------------------------|---------------------5---------|
A:---------------------5---7-------|-------------------------7-----|
E:-0-------3-----4-5h7-------------|-0-----0-3-----4-5h7-------7\--|
 wrong.

          A5
          q              q               q              q
e:-----------------------------------------------------------------|
B:-----------------------------------------------------------------|
G:-----------------------------------------------------------------|
D:--------7--------------7---------------7--------------7----------|
A:--------7--------------7---------------7--------------7----------|
E:--------5--------------5---------------5--------------5----------|
     I  don't  know    what    you're   fee          - lin',

                                                       G5
        q                q             q             s E
e:-----------------------------------------------------------------|
B:-----------------------------------------------------------------|
G:-----------------------------------------------------------------|
D:------7----------------7-------------7-------------7-5-----------|
A:------7----------------7-------------7-------------7-5-----------|
E:------5----------------5-------------5-------------5-3-----------|
           oh,                  but you've   been   feelin'

   q       E     s s s e   q         E     s E     s s s e   s E
e:---------------------------------|-------------------------------|
B:---------------------------------|-------------------------------|
G:---------------------------------|-------------------------------|
D:---------------------------------|---------------------5---------|
A:---------------------5---7-------|-------------------------7-----|
E:-0-------3-----4-5h7-------------|-0-----0-3-----4-5h7-------7\--|
  long.

           B5
           q              q             q                q
e:-----------------------------------------------------------------|
B:-----------------------------------------------------------------|
G:-----------------------------------------------------------------|
D:---------9--------------9-------------9----------------9---------|
A:---------9--------------9-------------9----------------9---------|
E:---------7--------------7-------------7----------------7---------|
 Well you think             that you're right,

    A5                                                   G5
    H+s                                                  E
e:-----------------------------------------------------------------|
B:-----------------------------------------------------------------|
G:-----------------------------------------------------------------|
D:--7----------------------------------------------------5---------|
A:--7----------------------------------------------------5---------|
E:--5----------------------------------------------------3---------|
   Tell me something mister,               why'd you have to

   q       E     s s s e   q         E     s E     s s s e   s E
e:---------------------------------|-------------------------------|
B:---------------------------------|-------------------------------|
G:---------------------------------|-------------------------------|
D:---------------------------------|---------------------5---------|
A:---------------------5---7-------|-------------------------7-----|
E:-0-------3-----4-5h7-------------|-0-----0-3-----4-5h7-------7\--|
  make us so uptight?

   q       E     s s s e   q         E     s E     s s s e   s E
e:---------------------------------|-------------------------------|
B:---------------------------------|-------------------------------|
G:---------------------------------|-------------------------------|
D:---------------------------------|---------------------5---------|
A:---------------------5---7-------|-------------------------7-----|
E:-0-------3-----4-5h7-------------|-0-----0-3-----4-5h7-------7\--|
Yeah yeah!

[Outro]:

    G5                   A5                    E5
e:--------------3-----|---------------5-----|----------------------|
B:--------------3-----|---------------5-----|----------------------|
G:--------------4-----|---------------6-----|--9=-------------9----|
D:--5-----------------|--7=-----------------|--9=-------------9----|
A:--5-----------------|--7=-----------------|--7=-------------7----|
E:--3-----------------|--5=-----------------|--0=-------------0----|


In The Mood:


  Intro
    Q=130
    (A)
   4/4
    Gtr I
    E E E E E E E E   E E E E E E E E
||------------------|------------------||
||o-----------------|-----------------o||
||------------2-----|---5S4-2-4-2---2--||
||--2-2-4-----2h4-2-|---5S4-2-4-2---2--||
||o-0-0-0-3h4-----0-|-------------4-0-o||
||------------------|------------------||


     Verse
  $
      (A)
      E E E E E E E E   E E E E E E E E
|-||------------------|------------------|
|-||o-----------------|------------------|
|-||------------2-----|---5S4-2-4-2------|
|-||--2-2-4-----2h4-2-|---5S4-2-4-2---4--|
|-||o-0-0-0-3h4-----0-|-------------4-2--|
|-||------------------|------------------|


  C5                                  D5               A
  E E E E E E E E   E E E E E E E E   Q  E E E E E E   E E E Q  E E E
|-----------------|-----------------|----------------|----------------|
|-----------------|-----------------|----------------|----------------|
|-5-5---5-5-5---5-|---8S7-5-7-5-----|-7----7-7-7---7-|----------------|
|-5-5-7-5-5-5-7-5-|---8S7-5-7-5-7-5-|-7--9-7-7-7-9-7-|-7-7---7--------|
|-3-3-3-3-3-3-3-3-|-------------7-5-|-5--5-5-5-5-5-5-|-7-7-9-7--------|
|-----------------|-----------------|----------------|-5-5-5-5--0-2-3-|


                                          Chorus
  (G)               E                      D5    A        G    A
  +E  E E +E  E E E E   +Q.   E +H         q  Q  E E Q    Q.   Q  E E E
|-------------------0-|-(0)---0-(0)-----||--------------|---------------|
|-------------------0-|-(0)---0-(0)----o||--------------|---------------|
|-------0-(0)-4-3-2-1-|-(1)---1-(1)-----||-7--7---------|---------------|
|-----0---------------|-------2-(2)-----||-7--7--7-7----|-5----7--------|
|---------------------|-------2-(2)----o||-5--5--7-7----|-5----7--7-9-7-|
|-(3)-----------------|-------0-(0)-----||-------5-5----|-3----5--7-9-7-|


  D5    A       E5                           D5    A        G    A
  q  Q  E E +E  E   +Q   E E S S S +S  E E   q  Q  E E Q    Q.   E E E E E
|-----------------|------------------------|--------------|----------------|
|-----------------|------------------------|--------------|----------------|
|-7--7----------9-|-(9)--------------------|-7--7---------|----------------|
|-7--7--7-7-(7)-9-|-(9)--------------------|-7--7--7-7----|-5----7-7---7---|
|-5--5--7-7-(7)-7-|-(7)------7h9p7-(7)---7-|-5--5--7-7----|-5----7-7-9-7---|
|-------5-5-(5)-0-|-(0)--7-9-----------9---|-------5-5----|-3----5-5-5-5-0-|


                                  To Coda                     D.S. al Coda
  (G)             E                        (G)             E
  E E E +E  E E E E   +Q   E E E +E  E E   E E E +E  E E E E   +Q   E E H
|-----------------0-|-(0)------0-(0)-----|-----------------0-|-(0)------0----||
|-----------------0-|-(0)------0-(0)-----|-----------------0-|-(0)------0----||
|-----0-(0)-4-3-2-1-|-(1)------1-(1)-----|-----0-(0)-4-3-2-1-|-(1)------1----||
|---0---------------|--------2-2-(2)-----|---0---------------|--------2-2----||
|-------------------|------2---2-(2)-----|-------------------|------2---2----||
|-3-----------------|----------0-(0)-0-2-|-3-----------------|----------0----||


 Guitar Solo
  &
  Gtr II
                                          ~~~~~~~~~
  H         Q   E E     +Q     Q     Q    E   E
|---------------------|---------------------------|
|-----------------5---|-(5)----5-----5----5---5---|
|-----------------7b9-|-(7)b9--7b9---7b9--7b9-7b9-|
|---------------------|---------------------------|
|---------------------|---------------------------|
|---------------------|---------------------------|
|
| Gtr I                 Gtr I
| E E E +E  E E E E     +Q     E   E H
|-----------------0---|-(0)----------0------------|
|-----------------0---|-(0)----------0------------|
|-----0-(0)-4-3-2-1---|-(1)----------1------------|
|---0-----------------|------------2-2------------|
|---------------------|--------2-----2------------|
|-3-------------------|--------------0------------|


  (A)
 ~~~~~~~~~~~~~~~~~~~~~~~~~                ~
  E   E   E   E   E   E   S S S S   E E E Q   E E E
|---------------------------------|-----------------|
|-5---5---5---5---5---5---5h8p5---|-7-5-------------|
|-7b9-7b9-7b9-7b9-7b9-7b9-------7-|-7-5-7-------5-7-|
|---------------------------------|-----7-7---7-----|
|---------------------------------|-----------------|
|---------------------------------|-----------------|
|
| E   E   E   E   E   E   E   E     E E E E E E E E
|---------------------------------|-----------------|
|---------------------------------|-----------------|
|---------------------2-----------|---5S4-2-4-2-----|
|-2---2---4-----------2h==4---2---|---5S4-2-4-2---4-|
|-0---0---0---3h==4-----------0---|-------------4-2-|
|---------------------------------|-----------------|


  C5                                                     D5
                        ~~~~~~~~                                       ~
  Q     Q     S S S S E E   +Q    S S E E E    a E S S   S S E S S E E Q   E
|-------------------------|----------------------------|---------------------|
|-------------------------|----------------------------|---------------------|
|-7b9---7b9r==7p5-----5---|-----------5-7-7pb8r7p5-5-5-|-7p5---------------5-|
|-----------------7-----7-|-(7)---5h7------------------|-----7-7p5---5-7-----|
|-------------------------|----------------------------|-----------7---------|
|-------------------------|----------------------------|---------------------|
|
| E   E E   E E   E   E E    E  E E   E E E      E E     Q     E   E E E E E
|-------------------------|----------------------------|---------------------|
|-------------------------|----------------------------|---------------------|
|-5---5-----5-5---5-----5-|-----8S7---5-7-5------------|-7---------7-7-7---7-|
|-5---5-7---5-5---5---7-5-|-----8S7---5-7-5------7-5---|-7-----9---7-7-7-9-7-|
|-3---3-3---3-3---3---3-3-|----------------------7-5---|-5-----5---5-5-5-5-5-|
|-------------------------|----------------------------|---------------------|


  A                   (G)             E
  ~             ~                       ~~~~~~~~~~
  Q   S S E E E Q     S S E E  E  S S E Q     +Q   E E  E  E E E
|-------------------|-----------------------|-----------------------|
|-------------------|-----------------------|--------5--7--7-5-7b8==|
|-------------------|-----------------------|------5-5--7--7-5-7b8==|
|-7-------5---------|-----5----7--7p5-5-----|-----------------------|
|-----5h7---5-7-----|-5s7---5-----------7---|-(7)-------------------|
|---------------8---|-----------------------|-----------------------|
|
| E E E   Q   E E E   E   E E +E  E   E E E   +Q.    E +H
|-------------------|---------------------0-|-(0)----0-(0)----------|
|-------------------|---------------------0-|-(0)----0-(0)----------|
|-------------------|-------0-(0)-4---3-2-1-|-(1)----1-(1)----------|
|-7-7-----7---------|-----0-----------------|--------2-(2)----------|
|-7-7-9---7---------|-----------------------|--------2-(2)----------|
|-5-5-5---5---0-2-3-|-3---------------------|--------0-(0)----------|


  (A)
  +E  +E  E E    +E  +E E E      +E  +E E E    +E  +E  E E
|------------------------------|---------------------------|
|-(7)r(7)-5-7b8==(7)r(7)5-7b8==|=(7)r(7)5-7b8==(7)r(7)-5-5-|
|-(7)r(7)-5-7b8==(7)r(7)5-7b8==|=(7)r(7)5-7b8==(7)r(7)-5-5-|
|------------------------------|---------------------------|
|------------------------------|---------------------------|
|------------------------------|---------------------------|
|
|  E   E  E E     E   E E E       E   E E E     E   E  E E
|------------------------------|---------------------------|
|------------------------------|---------------------------|
|---------------------2--------|------5S4-2-----4---2------|
|--2---2--4-----------2h4-2----|------5S4-2-----4---2----4-|
|--0---0--0-3h====4-------0----|-----------------------4-2-|
|------------------------------|---------------------------|


  C5                                         D5
     ~~~~~~~~~~~~~~~~~~~~      ~~~~~~~~~~~~                  ~
   E S S E S S E S S E E   E E E E E E E E   E  E  E  E  E E E E
|------------------------|-----------------|---------------------|
|-/8-8-8-8-8-8-8-8-8-8-8-|-----8---8---8---|------10-10----------|
|-/9-9-9-9-9-9-9-9-9-9-9-|-7s9---9---9---9-|-9s11-------11s9-5---|
|------------------------|-----------------|---------------------|
|------------------------|-----------------|---------------------|
|------------------------|-----------------|---------------------|
|
|  E E   E E   E E   E E   E E E E E E E E   Q     E  E  E E E E
|------------------------|-----------------|---------------------|
|------------------------|-----------------|---------------------|
|--5-5-----5---5-5-----5-|---8S7-5-7-5-----|-7--------7--7-7---7-|
|--5-5---7-5---5-5---7-5-|---8S7-5-7-5-7-5-|-7-----9--7--7-7-9-7-|
|--3-3---3-3---3-3---3-3-|-------------7-5-|-5-----5--5--5-5-5-5-|
|------------------------|-----------------|---------------------|


  A                  (G)                E
          ~                             ~~~~~~~~
  a E E E Q  E E E   E E E    +E  E E E E   +Q   E E  E  E    +E  E
|------------------|----------------------|--------------------------||
|-7s5-7-5----------|-5-7-7b8==(7)r7-5-----|--------------7b8==(7)r7--||
|-7s5-7-5------5-7-|-5-7-7b8==(7)r7-5-----|------5-7--5--7b8==(7)r7--||
|---------7--7-----|------------------7---|------5-7--5--------------||
|------------------|--------------------7-|-(7)----------------------||
|------------------|----------------------|--------------------------||
|
|   E E E Q  E E E   E E E    +E  E E E E   +Q.    E +H
|------------------|--------------------0-|-(0)----0-(0)-------------||
|------------------|--------------------0-|-(0)----0-(0)-------------||
|------------------|-----0----(0)-4-3-2-1-|-(1)----1-(1)-------------||
|---7-7---7--------|---0------------------|--------2-(2)-------------||
|---7-7-9-7--------|----------------------|--------2-(2)-------------||
|---5-5-5-5--0-2-3-|-3--------------------|--------0-(0)-------------||


 Chorus
  D5    A        G    A          D5    A       E5
  Gtr I
  q  Q  E E Q    Q.   Q  E E E   q  Q  E E +E  E   +Q   E E S S S +S  E E
|--------------|---------------|-----------------|------------------------|
|--------------|---------------|-----------------|------------------------|
|-7--7---------|---------------|-7--7----------9-|-(9)--------------------|
|-7--7--7-7----|-5----7--------|-7--7--7-7-(7)-9-|-(9)--------------------|
|-5--5--7-7----|-5----7--7-9-7-|-5--5--7-7-(7)-7-|-(7)------7h9p7-(7)---7-|
|-------5-5----|-3----5--7-9-7-|-------5-5-(5)-0-|-(0)--7-9-----------9---|


  D5    A        G    A           (G)             E
  q  Q  E E Q    Q.   E E E E E   E E E +E  E E E E   +Q   E E E +E  E E
|--------------|----------------|-----------------0-|-(0)------0-(0)-----|
|--------------|----------------|-----------------0-|-(0)------0-(0)-----|
|-7--7---------|----------------|-----0-(0)-4-3-2-1-|-(1)------1-(1)-----|
|-7--7--7-7----|-5----7-7---7---|---0---------------|--------2-2-(2)-----|
|-5--5--7-7----|-5----7-7-9-7---|-------------------|------2---2-(2)-----|
|-------5-5----|-3----5-5-5-5-0-|-3-----------------|----------0-(0)-0-2-|


                                         Intro Reprise
  (G)             E                       (A)
  E E E +E  E E E E   +Q   E E Q  E E     E E E E E E E E   E E E E E E E E
|-----------------0-|-(0)------0------||------------------|------------------||
|-----------------0-|-(0)------0------||o-----------------|-----------------o||
|-----0-(0)-4-3-2-1-|-(1)------1--2---||------------2-----|---5S4-2-4-2---2--||
|---0---------------|--------2-2----2-||--2-2-4-----2h4-2-|---5S4-2-4-2---2--||
|-------------------|------2---2------||o-0-0-0-3h4-----0-|-------------4-0-o||
|-3-----------------|----------0------||------------------|------------------||


   Verse
    (A)                                 C5
    E E E E E E E E   E E E E E E E E   E E E E E E E E   E E E E E E E E
||------------------|-----------------|-----------------|------------------|
||o-----------------|-----------------|-----------------|------------------|
||------------2-----|---5S4-2-4-2-----|-5-5---5-5-5---5-|---8S7-5-7-5------|
||--2-2-4-----2h4-2-|---5S4-2-4-2---4-|-5-5-7-5-5-5-7-5-|---8S7-5-7-5-7-5--|
||o-0-0-0-3h4-----0-|-------------4-2-|-3-3-3-3-3-3-3-3-|-------------7-5--|
||------------------|-----------------|-----------------|------------------|


  D5               A                (G)               E
  Q  E E E E E E   E E E Q  E E E   +E  E E +E  E E E E   +Q.   E +H
|----------------|----------------|-------------------0-|-(0)---0-(0)-----||
|----------------|----------------|-------------------0-|-(0)---0-(0)----o||
|-7----7-7-7---7-|----------------|-------0-(0)-4-3-2-1-|-(1)---1-(1)-----||
|-7--9-7-7-7-9-7-|-7-7---7--------|-----0---------------|-------2-(2)-----||
|-5--5-5-5-5-5-5-|-7-7-9-7--------|---------------------|-------2-(2)----o||
|----------------|-5-5-5-5--0-2-3-|-(3)-----------------|-------0-(0)-----||


 Chorus
  D5    A        G    A          D5    A       E5
  q  Q  E E Q    Q.   Q  E E E   q  Q  E E +E  E   +Q   E E S S S +S  E E
|--------------|---------------|-----------------|------------------------|
|--------------|---------------|-----------------|------------------------|
|-7--7---------|---------------|-7--7----------9-|-(9)--------------------|
|-7--7--7-7----|-5----7--------|-7--7--7-7-(7)-9-|-(9)--------------------|
|-5--5--7-7----|-5----7--7-9-7-|-5--5--7-7-(7)-7-|-(7)------7h9p7-(7)---7-|
|-------5-5----|-3----5--7-9-7-|-------5-5-(5)-0-|-(0)--7-9-----------9---|


  D5    A        G    A           (G)             E
  q  Q  E E Q    Q.   E E E E E   E E E +E  E E E E   +Q   E E E +E  E E
|--------------|----------------|-----------------0-|-(0)------0-(0)-----|
|--------------|----------------|-----------------0-|-(0)------0-(0)-----|
|-7--7---------|----------------|-----0-(0)-4-3-2-1-|-(1)------1-(1)-----|
|-7--7--7-7----|-5----7-7---7---|---0---------------|--------2-2-(2)-----|
|-5--5--7-7----|-5----7-7-9-7---|-------------------|------2---2-(2)-----|
|-------5-5----|-3----5-5-5-5-0-|-3-----------------|----------0-(0)-0-2-|


                                   Outro
  (G)             E                 (A)
  E E E +E  E E E E   +W            E E E E E E E E     +E  +E  E E E E E E
|-----------------0-|-(0)--------||-----------------||-----------------------||
|-----------------0-|-(0)--------||-----------------||o---------------------o||
|-----0-(0)-4-3-2-1-|-(1)--------||-----------2-----||----------------2------||
|---0-------------2-|-(2)--------||-2-2-4-----2h4-2-||--(2)-(2)-4-----2h4-2--||
|-----------------2-|-(2)--------||-0-0-0-3h4-----0-||o-(0)-(0)-0-3h4-----0-o||
|-3---------------0-|-(0)--------||-----------------||-----------------------||


  Aopen
  W          q  Q  H
|-0--------|------------*|
|-2--------|------------*|
|-2--------|-2----------*|
|-2--------|-2----------*|
|-0--------|-0----------*|
|----------|------------*|


Before And After:


Gtr. 1 (clean elec.)
----------<12>------------<12>-----------<12>-------------------------|
-----<12>------<5>---<12>------<5>--<12>------<5>---------------------|
----------------------------------------------------------------------|
----------------------------------------------------------------------|
----------------------------------------------------------------------|
----------------------------------------------------------------------|

Gtr. 2  (clean elec.)
-----0---------------0---------------0---------0----------------------|
-----0---------------0---------------0---------0----------------------|
----13---------------8---------------6---------1----------------------|
----14---o//o--------9---o//o--------7---o//o--2---o//o---------------|
----14---------------9---------------7---------2----------------------|
----12---------------7---------------5---------0----------------------|
   E(XII)          Badd4           Aadd2       E
Double Gtr. 2 with 12-string Acoustic 2nd time
==

----------------------------------------------------------------------|
----------------------------------------------------------------------|
----------------------------------------------------------------------|
----------------------------------------------------------------------|
--<7>---------<7>--------<7>------9-----------------------------------|
-------<7>---------<7>-------<7>-----<12>-----------------------------|

--0---0--------0---0-----0-----------0--------------------------------|
--0------0-----0------0--0-------2---0--------------------------------|
--x------------x---------6-------2---1--------------------------------|
--4------------6---------7---6---4---2--------------------------------|
--4------------6---------7---6-------2--------------------------------|
--2------------4---------5---4-------0--------------------------------|

==
---------0----------------0------------0--------------------0---------|
----------------------------------------------------------------------|
------------8----------------8-----------6---------------------6------|
-------9--------9-------9-----------7---------7----------7----------7-|
-----9--------9------9------------7--------7----------7-----------7---|
--7---------------7-------------5------------------5------------------|

variation
-----------0-----------------7-P-0-0-0--------0--------------7P0-0-0--|
------------------7-P-0-0-0-------------------------5P0-0-0-----------|
--------------8----------------------------------6--------------------|
--------9-----------------------------------7-------------------------|
-----9------------------------------------7---------------------------|
--7-------------------------------------5-----------------------------|

--0----   Bass  8va  --0--           ---0-----------------------------|
--0----              --0--           ---0-----------------------------|
--x--------------------x----------------6-----------------------------|
--4-----{4}-----{4}----6--{6}-----{6}---7----|----|--|--|--|----------|
--4-------{4}-{4}------6----{6}-{6}-----7----/----/--/--/--/----------|
--2---------{2}--------4------{4}-------5-----------------------------|

=
----------------------------------------------------------------------|
----------------------------------------------------------------------|
---2--2--2--2--2---------------------7--x-----------------------------|
---2--2--2--2--2-----x--x--x--x--5---7--x-----------------------------|
---0--0--0--0--0-----x--x--x--x--5---5--x-----------------------------|
---------------------x--x--x--x--3------------------------------------|


-----------------------------------------------------------------------|
-----------------------------------------------------------------------|
-----------------------------------------------------------------------| (half
---2--2--2--2--2--------0---------------2-2-2-2-2------0---------------|  step
---2--2--2--2--2--0-H-2---0--2-P-0------2-2-2-2-2--0H2---0-2-P-0-------|H-  bend)
---0--0--0--0--0--------------------3---0-0-0-0-0----------------3-----|(3)


-----------------------------|----------------------------------------|
-----------------------------|----------------------------------------|
--5---5--5------------7--3---|----------------------------------------|
--5---5--5---2-3-4-5--7--3---|----------------------------------------|
--3---3--3------------5--1---|------------1---------------------------|
-----------------------------|---1--2--3-----3------------------------|

Leads :
----------------------------------------------------------------------|
-------------F-------------3/4--------------------F---F---F---F-------|
------------(5)--grad.rel.-(5)---------------3-5-(5)-(5)-(5)-(5)------|
----------------------------------------------------------------------|
-------1------------------------------1-------------------------------|
-1-2-3---3----------------------1-2-3---3-----------------------------|

----------------------------------------------------------------------|
-rel------------------------------------------------------------------|
--5-P-3---5-3--5-P-3----------3-----------3---------------------------|
--------5------------5--3--5-----5--3--5-----5--3---------------------|
---------------------------------------------------5-4-3-1--3--1------|
------------------------------------------------------------------3-1-|

----------------------------------------------------------------------|
------------1+1/2---F---1/2--rel--------------------------------------|
------------(7)----(7)--(7)--(7)--7-6-5--5-P-3---5-(5)-3--------------|
-----------------------------------------------5----F-----5-5-P-3-3-5-|
-------1---------------------------------------------------------5----|
-1-2-3---3------------------------------------------------------------|

----------------------------------------------------------------------|
----F--3---6-P-3--F---3--6-P-3--F--3--6-P-3--F--rel--------F----------|
-5-(5)-----------(5)-----------(5)----------(5)--5--3-----(5)-5--3----|
------------------------------------------------------5-3----------5--|
----------------------------------------------------------------------|
----------------------------------------------------------------------|

----------------------------------------------------------------------|
---F------------------------------------------------------------------|
--(5)-5--3---5---3----------------------------------------------------|
-----------5---5------------------------------------------------------|
--------------------------1-----------1-----------1-----------1-------|
--------------------1-2-3---3---1-2-3---3---1-2-3---3---1-2-3---3-----|

==
----------------------------------------------------------------------|
---F--1+1/2--2---2----rel.........------------------------------------|
--(9)--(9)--(9)-(9)--(9)-9-9-9-9-9---9-8-7--5---5----5----5----5------|
-------------------------------------------------7P5--7P5--7P5--7P5---|
----------------------------------------------------7----7----7----7--|
----------------------------------------------------------------------|

--------------------------------------------------------------------------|
------F--rel--------------------------------------------------------------|
-5-7-(7)-(7)--------------------------------------------------------------|
-------------7-7-7-6-5--------------------F--rel------------------F-rel---|
-----------------------7-6-5-------3-H-5-(5)-(5)-3---------3-H-5-(5)(5)-3-|
-----------------------------3-H-5-----------------5-3-H-5----------------|

----------------------------------------------------------------------|
----------------------------------------------------------------------|
----------------------------------------------------------------------|
--------F-----------F-rel--------F-rel--------F---F-------F-rel-------|
-----3-(5)~~~~~~---(5)(5)-3---3-(5)(5)-3---3-(5)-(5)~~~~~(5)(5)-3---3-|
---5------------------------5------------5------------------------5---|

----------------------------------------------------------------------|
-------------------------------------------F-rel-------5H8P5--5H8P5---|
--------------------------------------5-7-(7)(7)-5---5------7------7--|
--F-rel----------------------5-----5H7-------------7------------------|
-(5)(5)-3---3-----3H5P3-3H5/7-7P5-7-----------------------------------|
----------5----3H5-----5----------------------------------------------|

----------------5H8P5--5H8P5------------------------------------------|
--5H8P5--5H8P5-------8------8-8P5--5H8P5---F-rel--------F-rel---------|
-------7------7------------------7------7-(7)(7)-5---5-(7)(7)-5---5---|
---------------------------------------------------7------------7-----|
----------------------------------------------------------------------|
----------------------------------------------------------------------|

----------------------------------------------------------------------|
-------8--(8)-8-(8)-8-(8)-8-------10--(10)-10-(10)-------6-(6)-6-(6)--|
-7-(7)(7)-(7)(7)(7)(7)(7)(7)---(9)(9)--(9)-(9)-(9)---(5)(5)(5)(5)(5)--|
----F-rel--F-rel-F-rel-F-rel----F-rel---F--rel--F-----F-rel-F-rel-F---|
----------------------------------------------------------------------|
----------------------------------------------------------------------|


Working Man:


   Intro
    Q=80
   4/4
    Gtr I
             ~~~~~~            ~    ~
    E. S E E Q  Q     E. S E E Q  S E S
||------------------|--------------------||
||o-----------------|-------------------o||
||------------------|--------------------||
||------------------|--------------------||
||o-2--2-2-2-5------|-2--2-2-2-3--3h5---o||
||--0--0-0-0----5\--|-0--0-0-0--------0--||


     Verse 1
               ~~~~~~            ~    ~
      E. S E E Q  Q     E. S E E Q  S E S
|-||------------------|--------------------|
|-||o-----------------|--------------------|
|-||------------------|--------------------|
|-||------------------|--------------------|
|-||o-2--2-2-2-5------|-2--2-2-2-3--3h5----|
|-||--0--0-0-0----5\--|-0--0-0-0--------0--|


           ~~~~~~            ~    ~
  E. S E E Q  Q     E. S E E Q  S E S   E. S E E Q  Q    H    Q  E E
|-----------------|-------------------|----------2-----|-0-------------|
|-----------------|-------------------|----------3-----|-0-------------|
|-----------------|-------------------|----------2--2--|-1-------------|
|-----------------|-------------------|----------0--2--|-2----5--7-----|
|-2--2-2-2-5------|-2--2-2-2-3--3h5---|-2--2-2-2----0--|-2----3--5-----|
|-0--0-0-0----5\--|-0--0-0-0--------0-|-0--0-0-0-------|-0---------7\--|


                                 Chorus
  E. S E E Q  Q    H    Q  E E    E E E E E E E E    E E E E E E E E
|----------2-----|-0-----------||------------------|------------------|
|----------3-----|-0-----------||------------------|------------------|
|----------2--2--|-1-----------||------------------|------------------|
|----------0--2--|-2----5--7---||------------------|------------------|
|-2--2-2-2----0--|-2----3--5---||-7---7---7---7----|-5---5---5---5----|
|-0--0-0-0-------|-0---------5-||---7---7---7---7\-|---5---5---5---5\-|


                       1.
  E E E E E E S S S S   Q  E E Q  E E   Q  E E Q  E E
|---------------------|---------------|----------------|
|---------------------|---------------|----------------|
|---------------------|---------------|----------------|
|---------------------|--------7------|--------5--7----|
|---5---5---7-----5h7-|-2--2-2-5--7---|-2--2-2-3--5----|
|-3---3---5---5h7-----|-0--0-0----5-0-|-0--0-0------7\-|


  E. S E E Q  E E   E. S E E Q  E E
|-----------------|--------------------||
|-----------------|-9--9-9------------o||
|-----------------|-9--9-9-------------||
|----------7------|-9--9-9---5--7------||
|-2--2-2-2-5--7---|-7--7-7-7-3--5-----o||
|-0--0-0-0----5-0-|-0--0-0-0------7\---||


 Guitar Solo 1
  2.
  Gtr II
  ~~~~~~ ~        ~
  Q  E E Q  E E   Q  S S S S S S S S S S S  S
|---------------|-----------------------------|
|-5--5S7-7--7-7-|-8--8-7-8-7---7--------------|
|---------------|------------9---9-7-9-7-6--7-|
|---------------|-----------------------------|
|---------------|-----------------------------|
|---------------|-----------------------------|
|
| Gtr I
| Q  Q   Q  Q     Q  Q       Q       E   E
|---------------|-----------------------------|
|---------------|-----------------------------|
|---------------|-----------------------------|
|--------7------|------------5-------7--------|
|-2--2---5--7---|-2--2-------3-------5--------|
|-0--0------5---|-0--0-------------------7\---|


          |-3-|
  S S S S T T T S S S   +S  S S T T S S T T S
|---------------------------------------------|
|---------------------------------------------|
|---------------------------------------------|
|-9-7-5-7-5h7p5---5-7b9r(7)---7-7p5---5-------|
|---------------7-----------7-------7---7p5---|
|-------------------------------------------7-|
|
| Q       Q              Q          Q
|---------------------------------------------|
|---------------------------------------------|
|---------------------------------------------|
|------------------------7--------------------|
|-2-------2--------------5----------7---------|
|-0-------0-------------------------5---------|


  S S S S S S T T S S S S  S  E     S       S
|------------------------------------------10--|
|-----------------------8-10-10b12-10b12==(10)-|
|-----------7-9p7---7s9------------------------|
|-----5-7s9-------9----------------------------|
|-5-7------------------------------------------|
|----------------------------------------------|
|
| Q       Q         Q         E     E
|----------------------------------------------|
|----------------------------------------------|
|----------------------------------------------|
|-------------------5---------7----------------|
|-2-------2---------3---------5----------------|
|-0-------0-------------------------7\---------|


   +E   E  +S   T     +T   +S   S  T T S  S S  S  T      +T  S S
|-(10)-10-(10)-----------------10---------------------------------|
|-(10)-10-(10)r10b12-(10)-(10)----10p8---10-8-10-10pb12r(10)p8----|
|--------------------------------------9-----------------------9--|
|-----------------------------------------------------------------|
|-----------------------------------------------------------------|
|-----------------------------------------------------------------|
|
|   Q       Q                      Q           Q
|-----------------------------------------------------------------|
|-----------------------------------------------------------------|
|-----------------------------------------------------------------|
|----------------------------------7------------------------------|
|---2-------2----------------------5-----------7------------------|
|---0-------0----------------------------------5------------------|


                  |-3--|
  E  E     +S   S T  T T S S S S S     +T  +T  S S  S
|-----------------------------------------------------|
|-8-12b15r(12)-12-8h10p8---8--------------------------|
|------------------------9---9-7-9b11==(9)r(9)------7-|
|----------------------------------------------7h9----|
|-----------------------------------------------------|
|-----------------------------------------------------|
|
| Q         Q              Q            E        E
|-----------------------------------------------------|
|-----------------------------------------------------|
|-----------------------------------------------------|
|--------------------------5------------7-------------|
|-2---------2--------------3------------5-------------|
|-0---------0------------------------------------7\---|


                                    |--3--|       |----3----|
  Q      +S  +S     +S  S     +S  S T +T  T S S S T     +T  T S
|----------------------------------------------------------------|
|----------------------------------------------------------------|
|-9b11===(9)r(9)b11-(9)-9b11==(9)-9-9r(9)-7---7-9-9pb11r(9)p7----|
|-------------------------------------------9-----------------9--|
|----------------------------------------------------------------|
|----------------------------------------------------------------|
|
| Q       Q                    Q              Q
|----------------------------------------------------------------|
|----------------------------------------------------------------|
|----------------------------------------------------------------|
|------------------------------7---------------------------------|
|-2-------2--------------------5--------------7------------------|
|-0-------0-----------------------------------5------------------|


                                       Chorus
  S T T S S S S S S T T S S S a Q       E E E E E E E E   E E E E E E E E
|------------------------------------||-----------------|------------------|
|------------------------------------||-----------------|------------------|
|-9-9p7---7--------------------------||-----------------|------------------|
|-------9---9-8-7-5-7p5---5----------||-----------------|------------------|
|-----------------------7---7-7p5----||-7---7---7---7---|-5---5---5---5----|
|------------------------------------||---7---7---7---7-|---5---5---5---5\-|
|
| Q         Q       Q           E E     E E E E E E E E   E E E E E E E E
|------------------------------------||-----------------|------------------|
|------------------------------------||-----------------|------------------|
|------------------------------------||-----------------|------------------|
|-------------------5-----------7----||-----------------|------------------|
|-2---------2-------3-----------5----||-7---7---7---7---|-5---5---5---5----|
|-0---------0---------------------7\-||---7---7---7---7-|---5---5---5---5\-|


                        Bass Break
  Gtr I
  E E E E E E S S S S    S E. Q  H
|---------------------||--------------|
|---------------------||--------------|
|---------------------||--------------|
|---------------------||--------------|
|---5---5---7-----5h7-||-2------------|
|-3---3---5---5h7-----||-0------------|


          Gtr II
                    |-----3------|
  H    Q   T  T  S  X      +X   +X   T  T  T
|--------------------------------------------|
|--------------------------------------------|
|---------------12-14b16==(14)r(14)p12----12-|
|---------12h14------------------------14----|
|--------------------------------------------|
|--------------------------------------------|


 Guitar Solo 2
  E5          E5                                   E5       E5    E5  E5
  Gtr I
   S     S  S  S            S             S        S    S S S S S S S S S
   |     |  |  |            |             |        |    | | | | | | | | |
   /     o  /  /            o             /        /    o / / / / / o / o

   T  T  S  S  T      +T   +T       +T   +T   +T   T S.   S S S S S S S S
|-------------------------------------------------------------------------|
|-------------------------------------------------------------------------|
|-----------------------------------------------------------7p6---7p6---7p|
|-14p12----12-14b16==(14)r(14)b16==(14)r(14)-(14)\-7----------------------|
|-------14----------------------------------------------------------------|
|-------------------------------------------------------------------------|


  E5    E5      E5      E5    E5  E5
  S S S S S S   S S S   S S S S S S   S
  | | | | | |   | | |   | | | | | |   |
  / o / / o /   / o /   / / / / o /   o

  S S S S S T T S S T T S S S S S T T S
|---------------------------------------|
|---------------------------------------|
|-6-------------------------------------|
|---9-5-7-5-7p5---5-----------5---------|
|---------------7---7p5---5-7---7-7p5---|
|-----------------------7-------------7-|


  E5    E5      E5      E5          E5      E5
  S S S S  S  S S S S   S   S   S   S   S   S     S
  | | | |  |  | | | |   |   |   |   |   |   |     |
  / o / /  o  / / o /   /   /   /   /   o   /     o

                                            |----5----|
  Q       +S  S S S T T T T T T T T T T T T T T T   T T
|-------------------------------------------------------|
|-------------------------------------------------------|
|-------------------------------------------------------|
|-------------------------------------------------------|
|-5-------(5)p4h5p4h5p4h5p4h5p4h5p4h5p4h5p4h5p4h5p==4h5p|
|-------------------------------------------------------|


  E5          E5          E5          E5          E5  E5
  S   S   S   S   S   S   S   S   S   S   S   S   S S S   S
  |   |   |   |   |   |   |   |   |   |   |   |   | | |   |
  /   o   /   /   o   /   /   o   /   /   /   /   / o /   o

  T T T T T T T T T T T T T T T T T T T T T T T T S S T T S
|--------------------------------------------------------------|
|--------------------------------------------------------------|
|--------------------------------------------------------------|
|--------------------------------------------------------------|
|-4h5p4h5p4h5p4h5p4h5p4h5p4h5p4h5p4h5p4h5p4h5p4h5-4s2-0--------|
|-------------------------------------------------------3p0----|


  E5    E5    E5      E5      E5      E5
  S S S S S S S S  S  S S S   S   S   S   S
  | | | | | | | |  |  | | |   |   |   |   |
  / o / / o / / o  /  / / /   /   o   /   o

  H               +E.     T T T T T T T T T T
|---------------------------------------------|
|---------------------------------------------|
|---------------------------------------------|
|-2---------------(2)---------7---------------|
|-2---------------(2)-----5h7---7p5---5h7-7p5-|
|-0---------------(0)---------------7---------|


  E5        E5            E5          E5          E5    E5
  S   S S   S       S S   S   S   S   S   S   S   S   S S   S
  |   | |   |       | |   |   |   |   |   |   |   |   | |   |
  /   o /   /       o /   /   o   /   /   /   /   /   o /   o

  T T S T T X X X X S T T T T T T T T T T T T T T T T S T T T T
|----------------------------------------------------------------|
|----------------------------------------------------------------|
|----------------------------------------------------------------|
|---------------7-7-5-------5-7-5-----------5-7-5-----8-7-5---8--|
|---5-7-7-5---5-------7-5---------7-5---5-7-------7-5-------7----|
|-7---------7-------------7-----------7--------------------------|


  E5          E5            E5            E5             E5                  E5
  S   S   S   S   S   S     S   S     S   S      S   S    S        S         S   S
  |   |   |   |   |   |     |   |     |   |      |   |    |        |         |   |
  /   o   /   /   o   /     /   o     /   /      /   /    /        o         /   o

                                |-3-|
  T T T T T T T T T T T X X T T T T T T T T X X  T T T T  T  T     T     +T  T T T T
|------------------------------------------------------------------------------------|
|-----------------------------------------------10-8---8-10-10b11-10b12r(10)-8-------|
|-------------------------------------9-7---7-9------9-------------------------9-7-9-|
|-7-5---5-7-8-7-5---5-7-8-8-7-5-7-8-9-----9------------------------------------------|
|-----7-----------7------------------------------------------------------------------|
|------------------------------------------------------------------------------------|


  E5            E5        E5           E5          E5      E5
   S     S   S  S   S   S S  S      S  S  S  S       S   S S    S
   |     |   |  |   |   | |  |      |  |  |  |       |   | |    |
   /     o   /  /   o   / /  o      /  /  /  /       /   o /    o

             ~~~~
   E         E     +S   S S  S     +E     S  S      +S   S T  T T  T
|-----------10----(10)----0-10b12-(10)---10-10pb12-(10)-10-7h10p7----|
|-10b12====(10)---(10)-10-----------------------------------------10-|
|--------------------------------------------------------------------|
|--------------------------------------------------------------------|
|--------------------------------------------------------------------|
|--------------------------------------------------------------------|


  E5                    E5                   E5                 E5                E5       E5
  S      S       S      S      S      S       S      S     S     S       S    S    S   S   S   S
  |      |       |      |      |      |       |      |     |     |       |    |    |   |   |   |
  /      o       /      /      o      /       /      o     /     /       /    /    /   o   /   o

  |-----5-----|  |-----5-----| |-----5-----|  |----5-----|
  T  T T    T T  T T  T   T  T T  T T    T T  T T  T   T T T  T  S      +T  T T T  T T T T T T T T
|-7h10p7------7h10----------10p7----7h==10p7----7--------------------------------------------------|
|----------10------7h10p==7------10----------10---10p==8---8-10-10pb12r(10)-8-----10p8---8---------|
|--------------------------------------------------------9--------------------7h9------9---9p7---7-|
|----------------------------------------------------------------------------------------------9---|
|--------------------------------------------------------------------------------------------------|
|--------------------------------------------------------------------------------------------------|


  E5       E5      E5                    E5                               E5    E5
  S    S S S S   S S S         S          S      S     S                   S  S S  S
  |    | | | |   | | |         |          |      |     |                   |  | |  |
  /    o / / o   / / o         /          /      /     /                   /  o /  o

                                                       |-----3------|
  Q          T T S S T    +T  +T     +T  +T   T  T  T  X      +X   +X   T  S  S S  T  T
|---------------------------------------------------------------------------------------|
|---------------------------------------------------------------------------------12h15-|
|-9b11-------9p7---9-7b9==(7)r(7)b9==(7)r(7)s12-------14b15==(14)r(14)-12----12---------|
|----------------9------------------------------12h14---------------------14------------|
|---------------------------------------------------------------------------------------|
|---------------------------------------------------------------------------------------|


  E5                  E5                   E5             E5       |
  S     S     S        S        S     S     S  S     S     S     S |
  |     |     |        |        |     |     |  |     |     |     | |
  /     o     /        /        o     /     /  o     /     /     / |
|
              |------6-------||
  T  T  T  T  T  T  T  T  T  T  T  T  T  T  S  T  T  T  T  T  T  T |
|------------------12----------------12-------------14p12----------|
|---15p12----12h15----15p12----12h15----15p12-12----------15p12h15-|
|---------14----------------14-------------------14----------------|
|------------------------------------------------------------------|
|------------------------------------------------------------------|
|------------------------------------------------------------------|

            E5          E5
    S        S     S     S     S
    |        |     |     |     |
    /        /     o     /     o


 T  T  X  X  T  T  T  T  T  T  T  T
12h14p12----17p12----17p12----17p12--|
---------15-------15-------15--------|
-------------------------------------|
-------------------------------------|
-------------------------------------|
-------------------------------------|


  E5             E5                E5                           E5 |
   S     S  S     S     S     S     S                S     S     S |
   |     |  |     |     |     |     |                |     |     | |
   /     o  /     /     o     /     /                o     /     / |
|
                                    |-----3------||
   T  T  S  T  T  T  T  T  T  T  T  T      +T   +T   T  T  T  T  T |
|----17----15p12---------------------------------------------------|
|-15----14-------15-15-15----12-15-15b17==(15)r(15)p12-------------|
|-------------------------14---------------------------14-14-12----|
|---------------------------------------------------------------12-|
|------------------------------------------------------------------|
|------------------------------------------------------------------|

                 E5     E5
         S    S    S  S   S   S
         |    |    |  |   |   |
         /    /    /  o   /   o


 T      +S    S   +E      S   S
-----------------------------------|
-------------15--(15)----12--15b18-|
14b16==(14)-(14)-(14)r==(14)-------|
-----------------------------------|
-----------------------------------|
-----------------------------------|



  E5                          E5             E5            E5     |
    S      S       S           S     S  S    S  S     S    S     S|
    |      |       |           |     |  |    |  |     |    |     ||
    /      o       /           /     o  /    /  o     /    /     /|
|
                                                                  |
   +E          a   T      +T   T  T  S  E       T  T  T  S    T  T|
|-----------------------------------------------------------------|
|-(15)pb18r==(15)-15pb17r(15)p12----12-15b18---15p12----15---15p12|
|--------------------------------14------------------14-----------|
|-----------------------------------------------------------------|
|-----------------------------------------------------------------|
|-----------------------------------------------------------------|

             E5                E5
     S        S     S            S  S
     |        |     |            |  |
     /        /     o            /  o

     |--3--|
  T  T  T  T  T  T  T      +T    E
---------------------------------------|
----12--------------------------15-----|
-14----14-12----12-14b16==(14)-(14)----|
-------------14------------------------|
---------------------------------------|
---------------------------------------|


  E5                               E5                             E5       |
    S  S               S             S             S        S       S      |
    |  |               |             |             |        |       |      |
    /  o               /             /             o        /       /      |
|
                                                                           |
   +S.     a   T      +T   +T       +T   +T       +S    a   S      +S    a |
|--------------------------------------------------------------------------|
|-(15)--------15-----(15)-(15)-----(15)-(15)-----(15)------15-----(15)-----|
|-(14)r==(14)-14b16==(14)r(14)b16==(14)r(14)b16==(14)r(14)-14b16==(14)r(14)|
|--------------------------------------------------------------------------|
|--------------------------------------------------------------------------|
|--------------------------------------------------------------------------|

                  E5          E5    E5
  S  S             S  S  S     S  S  S  S
  |  |             |  |  |     |  |  |  |
  o  /             /  /  /     /  o  /  o

     |----3-----|
  S  T     +T   T  S  S  T  T  S  S  S  S
---------------------------------------------|
-15------------------------------------12b15-|
----14b16r(14)p12----14-12-14-12----12-------|
------------------14-------------14----------|
---------------------------------------------|
---------------------------------------------|



  E5               E5        E5                  E5       E5    E5
    S      S  S    S  S    S  S    S  S           S  S  S  S  S  S  S
    |      |  |    |  |    |  |    |  |           |  |  |  |  |  |  |
    /      o  /    /  o    /  /    o  /           /  /  /  /  o  /  o

   +E         E       E       E       T      +T   S  S  S  S  S  S  S
|---------------------------------------------------------------------|
|-(12)pb15---12b15---13b16---15b17---15b17==(15)r15-12-12-------------|
|---------------------------------------------------------15-14-13-12-|
|---------------------------------------------------------------------|
|---------------------------------------------------------------------|
|---------------------------------------------------------------------|


  E5      E5          E5              E5       E5    E5
   S  S S S   S   S   S S          S  S  S   S S   S S S
   |  | | |   |   |   | |          |  |  |   | |   | | |
   /  o / /   o   /   / o          /  /  /   / /   o / o

   S  S S T T T T T T S T     +T   S  S  T T S T T S S S
|--------------------------------------------------------|
|-------------------------------------8-10p8-------------|
|-11-10-9-7h9-9p7---7-9-9b11==(9)r(9)--------9-9p7---7-7-|
|-----------------9--------------------------------9-----|
|--------------------------------------------------------|
|--------------------------------------------------------|


  E5          E5          E5          E5          E5  E5
  S   S   S   S   S   S   S   S   S   S       S S S S S S
  |   |   |   |   |   |   |   |   |   |       | | | | | |
  /   o   /   /   o   /   /   o   /   /       / / / o / o

  T T T T T T T T T T T T T T T T T T X X X X S S S S S S
|---------------------------------------------------------|
|-7p3p0-5p3p0-7p3p0-5p3p0-7p3p0-5p3p0-7p3p0---------------|
|-------------------------------------------------------7-|
|-------------------------------------------7-5---7-5-----|
|-----------------------------------------------7-----7---|
|---------------------------------------------------------|


  E5          E5          E5          E5    E5     E5
  S   S   S   S   S   S   S   S     S S S S S    S S S
  |   |   |   |   |   |   |   |     | | | | |    | | |
  /   o   /   /   o   /   /   o     / / / / /    o / o

  T T T T T T T T T T T T T T T X X S S S S E      S S
|------------------------------------------------------|
|-7p3p0-5p3p0-7p3p0-5p3p0-7p3p0------------------------|
|--------------------------------------------------7-7-|
|-------------------------------8s7-5---7---6tr5-------|
|-------------------------------------7---7------------|
|------------------------------------------------------|


  E5          E5          E5        E5      E5  E5
  S   S   S   S   S   S   S   S S   S   S S S S S S
  |   |   |   |   |   |   |   | |   |   | | | | | |
  /   o   /   /   o   /   /   o /   /   / / / o / o

  T T T T T T T T T T T T T T S T T T T S S S S S S
|---------------------------------------------------|
|-7p3p0-5p3p0-7p3p0-5p3p0-7p3p0---------------------|
|---------------------------------------------------|
|-------------------------------9-9s7-5---7---4-4-0-|
|---------------------------------------7---7-------|
|---------------------------------------------------|


  E5          E5          E5        E5      E5  E5
  S   S   S   S   S   S   S   S S   S S S   S S S   S
  |   |   |   |   |   |   |   | |   | | |   | | |   |
  /   o   /   /   o   /   /   o /   / / /   / o /   o

  T T T T T T T T T T T T T T S T T S S T T S S T T S
|-----------------------------------------------------|
|-7p3p0-5p3p0-7p3p0-5p3p0-7p3p0-----------------------|
|-----------------------------------7-----------------|
|-------------------------------7s9---7-7p5---7-5h6-0-|
|-------------------------------------------7---------|
|-----------------------------------------------------|


   Interlude
    Gtrs I, II
                              ~~~~~~
    S S T T S S S T T S S S S S +E  S S  3x
||---------------------------------------||
||o-------------------------------------o||
||---------------------------------------||
||----------------------------5-(5)------||
||o-7-7-7p5---7-7-7p5---7-5---------7-5-o||
||----------7---------7-----7------------||


  S S T T S S S T T S S S S S +E  S S
|--------------------------------------|
|--------------------------------------|
|-----------------------------------7--|
|---------------------------5-(5)------|
|-7-7-7p5---7-7-7p5---7-5---------7----|
|---------7---------7-----7------------|


                            ~~~~~~
  S S T T S S S T T S S S S S +E  S S
|-------------------------------------|
|---------------------------8-(8)-----|
|-9-9-9p7---9-9-9p7---9-7---------9-7-|
|---------9---------9-----9-----------|
|-------------------------------------|
|-------------------------------------|


                            ~~~~~~
  S S T T S S S T T S S S S S +S  S S  S
|-----------------------------------------|
|---------------------------8-(8)---8-10--|
|-9-9-9p7---9-9-9p7---9-7---------9-------|
|---------9---------9-----9---------------|
|-----------------------------------------|
|-----------------------------------------|


  Gtr II
   E       E         T T S  S   S S S S S  S  S S S
|---------------------------------------------------|
|-10b12---10b12-----10p8---10---8-------8-----------|
|------------------------9--------9-7-9----9------7-|
|---------------------------------------------7h9---|
|---------------------------------------------------|
|---------------------------------------------------|
|
| Gtr I
|                                       ~~~~~~
|  S    S  T    T S  S   S  T T S S S S S +E    S S
|---------------------------------------------------|
|---------------------------------------------------|
|---------------------------------------------------|
|---------------------------------------5-(5)-------|
|--7----7--7p===5----7---7--7p5---7-5-----------7-5-|
|-----------------7-------------7-----7-------------|


  ~~~~
  W
|----------------------------------------|
|----------------------------------------|
|-9b11-----------------------------------|
|----------------------------------------|
|----------------------------------------|
|----------------------------------------|
|
|                              ~~~~~~
| S    S T T S S S T T S S S S S +E  S S
|----------------------------------------|
|----------------------------------------|
|----------------------------------------|
|------------------------------5-(5)-----|
|-7----7-7p5---7-7-7p5---7-5---------7-5-|
|------------7---------7-----7-----------|


  E5        E5    E5                  E5    E5
  Gtr I
  E S S S S S S S E S E E   E S S S S S S S E S E   E
  |   |   | | | | | | | |   |   |   | | | | | | |   |
  /   /   o / o / / / / /   /   /   o / o / / / /   /

  W                         H             Q     S S S S
|-------------------------|-----------------------------|
|-------------------------|-----------------------------|
|-------------------------|-----------------------------|
|-------------------------|-----------------------------|
|-------------------------|-----------------------7-7-7-|
|-------------------------|-----------------------------|


                E5      E5
  E   S S  S  S S S  S  E S E E
  |     |     | | |  |  | | | |
  /     /     o / o  /  / / / /

  S S S S +Q        +Q.       S S
|-----------------------------------|
|-----------------------------------|
|-----------------------------------|
|-----------------------------------|
|-7-5---5-(5)-------(5)---------5---|
|-----7-----------------------------|


              E5    E5                         E5    E5
  E   S S S S S S S E S  E    E     E  S S S S S S S E   S E     E
  |     |   | | | | | |  |    |     |    |   | | | | |   | |     |
  /     /   o / o / / /  /    /     /    /   o / o / /   / /     /

          ~
  S S S S H             +S  S S S   Q.         S S S S S S S T T S S
|---------------------------------|----------------------------------|
|---------------------------------|----------------------------------|
|---------------------------------|--------------7---7p6-7-6-7p6-----|
|---------------------------------|------------------------------9-8-|
|---5-----------------------------|----------------------------------|
|-----7-5-3-------------(3)-3s5s3-|-0--------------------------------|


                  E5    E5
  E   S   S S   S S S S E   S         E               E
  |       |     | | | | |   |         |               |
  /       /     o / o / /   /         /               /

                                      |----3-----|
  S S T T S T T S S S S S S T    +T  +T     +T  +T  S T T S
|-----------------------------------------------------------|
|-----------------------------------------------------------|
|-----------------------------------------------------------|
|-9-5-7-5-------------5-7-7-5b7==(5)r(5)b7==(5)r(5)---------|
|---------7-7-5---5-7-------------------------------7-7-5---|
|---------------7-----------------------------------------7-|


                                E5    E5
  E   S         S          S  S S S S E   S E   E
  |             |             | | | | |   | |   |
  /             /             o / o / /   / /   /

  S S T    +T  +T     +T  +S  S S S S S S S S S S T     +T
|-----------------------------------------------------------|
|-----------------------------------------------------------|
|-----------------------------------------------------------|
|-----------------------------------------5---7-5-----------|
|-5-5-5b6==(5)r(5)b6==(5)r(5)s4s5s4---5-7---7-----7b10==(7)-|
|-----------------------------------7-----------------------|


                    E5     E5
   E      S   S S S S S S  E S E     E
   |          |   | | | |  | | |     |
   /          /   o / o /  / / /     /

  +S  +S  T T S E   S S E.   S S T T S S
|----------------------------------------|
|----------------------------------------|
|------------------------------------7-7-|
|-------------------7-5s2\-------7-9-----|
|-(7)r(7)-7p5---5------------------------|
|-------------7--------------------------|


                         E5     E5
  E   S S  S  S          S S  S E         S   E     E
  |     |     |          | |  | |         |   |     |
  /     /     o          / o  / /         /   /     /

  S S S S  S  T      +T  S S  S S  S     +S   T T E    S
|--------------------------------------------11-0-------------|
|-------8-10-10pb12r(10)-8---10-8-10b12-(10)----------12b15===|
|---7-9--------------------9----------------------------------|
|-9-----------------------------------------------------------|
|-------------------------------------------------------------|
|-------------------------------------------------------------|


                        E5                  E5
    E        S  S  S  S  S          S     S  E     S            E      E
    |           |     |  |          |     |  |     |            |      |
    /           /     o  /          o     /  /     /            /      /

   +S   +S   S  S  S  S  T     +T   T  T  S  S  S  T      +T   +S   S  S  S
|---------------------------------------------------------------------------|
|-(12)r(12)-----------------------------------------------------------------|
|-----------14-13-13-12-14b16r(14)p12----12------------------------------12-|
|-------------------------------------14----14-12-14b16==(14)r(14)-12h14----|
|---------------------------------------------------------------------------|
|---------------------------------------------------------------------------|


                             E5                E5
    E        S    S     S  S  S  S  S            E     S E           E
    |             |        |  |  |  |            |     | |           |
    /             /        o  /  o  /            /     / /           /

                                                            |--3--|
    E       +S    T  T  S  S  S  S  T      +T   +S   S E    T  T  T  S  S
|-------------------------------------------------------------------------|
|----------------------------------------------------------12-15-12-10-12-|
|-[14]b16r([14])p12----14-12------------------------12--------------------|
|-------------------14-------14-12-14b16==(14)r(14)-----------------------|
|-------------------------------------------------------------------------|
|-------------------------------------------------------------------------|


                                E5             E5
   E           S  S        S  S  S        S  S  E       S    E         E
   |              |           |  |        |  |  |       |    |         |
   /              /           o  /        o  /  /       /    /         /

   |--3--|        |--3--|        |--3--|
   T  T  T  S  S  T  T  T  S  S  T  T  T  S  S  E      +S   +S      S  S  S
|---------------------------------------------------------------------12----|
|-12h15p12----12-12h14p12----12-12h15p12----12-15b17==(15)r(15)b18-15----15-|
|----------14-------------14-------------14---------------------------------|
|---------------------------------------------------------------------------|
|---------------------------------------------------------------------------|
|---------------------------------------------------------------------------|


                             E5           E5
   E      S   S      S    S   S    S   S   E      S   E     E
   |          |           |   |    |   |   |      |   |     |
   /          /           o   /    o   /   /      /   /     /

   E     +S   S     +S   +S   E       +S   E     +S   E     E
|-----------------------------------------------------------------|
|-15b17-(15)-15b17-(15)-(15)-15b17---(15)-15b18-(15)-15b19-15b19--|
|-----------------------------------------------------------------|
|-----------------------------------------------------------------|
|-----------------------------------------------------------------|
|-----------------------------------------------------------------|


                            E5          E5
   E      S   S  S     S     S  S  S     E     S            E              E
   |          |        |     |  |  |     |     |            |              |
   /          /        o     /  o  /     /     /            /              /

                                                                              |-3--|
   E     +S   S  T  T  T  T  S  S  T  T  S  S  T      +T   +S   X  X  X  X S  T T  T
|-----------------------------------------------------------------10-12-10-7-10-7-10-|
|-15b19r(15)----12h15p12----12---------------------------------12--------------------|
|------------14----------14----14-14p12----14-12b14==(12)r(12)-----------------------|
|---------------------------------------14-------------------------------------------|
|------------------------------------------------------------------------------------|
|------------------------------------------------------------------------------------|


                                        E5                    E5|
   E         S        S    S    S       S    S        S        E    |
   |                  |         |       |    |        |        |    |
   /                  /         o       /    o        /        /    |
|
   T  T T  T T  X  X  T T  T T  X  X  T T  T T  X  X  X  X  T  T  T |
|-12-10-7----7-10-12-10-7----7-10-12-10-7----7-10-12-15-12----------|
|---------12--------------12--------------12---------------12-12-15-|
|-------------------------------------------------------------------|
|-------------------------------------------------------------------|
|-------------------------------------------------------------------|
|-------------------------------------------------------------------|


          S     E              E
          |     |              |
          /     /              /

 T  X  X  T  T  T  T  X  X  T  S  S
12-15-12----------12-15-12----12-15b18===|
---------12-12-15----------14------------|
-----------------------------------------|
-----------------------------------------|
-----------------------------------------|
-----------------------------------------|


                      E5            E5
    E  S S       S  S  S  S      S   E          S    E             E
    |    |          |  |  |      |   |          |    |             |
    /    /          o  /  o      /   /          /    /             /

   +Q        a   S  S  S  S     +S   S  S      +S    S   +T   +T   S  S
|-(15)r====(15)-12----12------------15--------------15------------------|
|------------------15----15b17-(15)----15b17==(15)-(15)-(15)r(15)----12-|
|-----------------------------------------------------------------14----|
|-----------------------------------------------------------------------|
|-----------------------------------------------------------------------|
|-----------------------------------------------------------------------|


                                E5                E5
   E     S     S     S     S     S     S     S     E           S        E              E
   |           |           |     |     |     |     |           |        |              |
   /           /           o     /     o     /     /           /        /              /

                                                               |--3--|        |--3--|  |--3--|
   S  S  T  T  T  T  T  T  T  T  T  T  T  T  T  T  T  X  X  S  T  T  T  T  T  T  T  T  T  T  T  S
|-------------------------------------------------------------------------------------------------|
|-12----15p12----15p12----15p12----15p12----15p12----12-------------------------------------------|
|----14-------14-------14-------14-------14-------14----12----12h16p12----12h16p12----12h16p12----|
|----------------------------------------------------------14----------14----------14----------14-|
|-------------------------------------------------------------------------------------------------|
|-------------------------------------------------------------------------------------------------|


                                               E5                E5
   E                 S     S        S     S     S     S     S     E           S E E
   |                       |              |     |     |     |     |           | | |
   /                       /              o     /     o     /     /           / / /

                           |--3--|
   X  X  T  T  X  X  T  T  T  T  T  T  T  T  T  T  T  T  T  T  T  T  T  T  T  E.  E
|------------------------------------------------------------------------------------|
|------------------------------------------------------------------------------------|
|-12h15-12----12h15p12----15p12----16p12----16p12----16p12----16p12----15p12---------|
|----------14----------14-------14-------14-------14-------14-------14-------14s==8\-|
|------------------------------------------------------------------------------------|
|------------------------------------------------------------------------------------|


    Gtrs I, II
                              ~~~~~~
    S S T T S S S T T S S S S S +E  S S  3x
||---------------------------------------||
||o-------------------------------------o||
||---------------------------------------||
||----------------------------5-(5)------||
||o-7-7-7p5---7-7-7p5---7-5---------7-5-o||
||----------7---------7-----7------------||


  S S T T S S S T T S S S S S +E  S S
|--------------------------------------|
|--------------------------------------|
|-----------------------------------7--|
|---------------------------5-(5)------|
|-7-7-7p5---7-7-7p5---7-5---------7----|
|---------7---------7-----7------------|


                            ~~~~~~                                ~~~~~~
  S S T T S S S T T S S S S S +E  S S   S S T T S S S T T S S S S S +Q
|-------------------------------------|-----------------------------------|
|---------------------------8-(8)-----|---------------------------8-(8)---|
|-9-9-9p7---9-9-9p7---9-7---------9-7-|-9-9-9p7---9-9-9p7---9-7-----------|
|---------9---------9-----9-----------|---------9---------9-----9---------|
|-------------------------------------|-----------------------------------|
|-------------------------------------|-----------------------------------|


                            ~~~~~~                                ~~~~~~
  S S T T S S S T T S S S S S +E  S S   S S T T S S S T T S S S S S +Q
|-------------------------------------|-----------------------------------|
|-------------------------------------|-----------------------------------|
|-------------------------------------|-----------------------------------|
|---------------------------5-(5)-----|---------------------------5-(5)---|
|-7-7-7p5---7-7-7p5---7-5---------7-5-|-7-7-7p5---7-7-7p5---7-5---5-(5)---|
|---------7---------7-----7-----------|---------7---------7-----7-3-(3)---|


            E5    E5                   E5    E5
  Gtr I
  E S S S S S S S E S E E   E  S S S S S S S E S E E
  |   |   | | | | | | | |   |    |   | | | | | | | |
  /   /   o / o / / / / /   /    /   o / o / / / / /

  Gtr II
  W                         H.                   E E
|-0-----------------------|--------------------------|
|-0-----------------------|-3--------------------3-3-|
|-1-----------------------|-1--------------------1-1-|
|-2-----------------------|-0--------------------0-0-|
|-2-----------------------|-2------------------------|
|-0-----------------------|-0------------------------|


             E5    E5
  E  S S S S S S S E S E E
  |    |   | | | | | | | |
  /    /   o / o / / / / /

  H.                   E E
|---------------------------|
|-2--------------------2-2--|
|-2--------------------2-2--|
|-2--------------------2-2--|
|-2-------------------------|
|-0-------------------------|


             E5    E5                    E5    E5
  E  S S S S S S S E S E E   E   S S S S S S S E   S E   E
  |    |   | | | | | | | |   |     |   | | | | |   | |   |
  /    /   o / o / / / / /   /     /   o / o / /   / /   /

                             <
  H.                   E E   S S S S S S S S S S S S S S S S
|-0--------------------0-0-|---------------------------------|
|-0--------------------0-0-|---------------------------------|
|-1--------------------1-1-|---------------------------------|
|-2------------------------|---------------------------------|
|-2------------------------|-7-7-7-7-7-7-7-7-7-7-7-7-7-7-7-7-|
|-0------------------------|-0-0-0-0-0-0-0-0-0-0-0-0-0-0-0-0-|


              E5    E5
  E   S S S S S S S E   S  E  E
  |     |   | | | | |   |  |  |
  /     /   o / o / /   /  /  /

  S S S S S S S S S S S S  Q
|-------------------------------|
|-------------------------------|
|-------------------------14\---|
|-------------------------------|
|-7-7-7-7-7-7-7-7-7-7-7-7-------|
|-0-0-0-0-0-0-0-0-0-0-0-0-------|


 2/4     4/4
  Gtrs I, II
  Q  Q    Q  E E Q  E E    E. S E E Q  Q
|-------|----------------|----------------|
|-------|----------------|----------------|
|-------|----------------|----------------|
|-7-----|--------5--7----|----------7-----|
|-5--7--|-2--2-2-3--5----|-2--2-2-2-5--7--|
|----5--|-0--0-0------7\-|-0--0-0-0----5--|


                             Verse 3
  Gtr II
                                       ~~~~~~            ~    ~
  H         Q      Q          E. S E E Q  Q     E. S E E Q  S E S
|-0---------8-----10-------||-----------------|--------------------|
|-0--------11b13--13b15----||-----------------|--------------------|
|-1------------------------||-----------------|--------------------|
|-2------------------------||-----------------|--------------------|
|-2------------------------||-2--2-2-2-5------|-2--2-2-2-3--3h5----|
|-0------------------------||-0--0-0-0----5\--|-0--0-0-0--------0--|
|
| Gtr I
|                                      ~~~~~~            ~    ~
| E. S E E  Q      E    E     E. S E E Q  Q     E. S E E Q  S E S
|--------------------------||-----------------|--------------------|
|--------------------------||-----------------|--------------------|
|--------------------------||-----------------|--------------------|
|-----------5------7-------||-----------------|--------------------|
|-2--2-2-2--3------5-------||-2--2-2-2-5------|-2--2-2-2-3--3h5----|
|-0--0-0-0--------------7\-||-0--0-0-0----5\--|-0--0-0-0--------0--|


  Gtrs I, II
           ~~~~~~            ~    ~
  E. S E E Q  Q     E. S E E Q  S E S   E. S E E Q  Q    H    Q  E E
|-----------------|-------------------|----------2-----|-0-------------|
|-----------------|-------------------|----------3-----|-0-------------|
|-----------------|-------------------|----------2--2--|-1-------------|
|-----------------|-------------------|----------0--2--|-2----5--7-----|
|-2--2-2-2-5------|-2--2-2-2-3--3h5---|-2--2-2-2----0--|-2----3--5-----|
|-0--0-0-0----5\--|-0--0-0-0--------0-|-0--0-0-0-------|-0---------7\--|


                                 Chorus
  E. S E E Q  Q    H    Q  E E    E E E E E E E E    E E E E E E E E
|----------2-----|-0-----------||------------------|------------------|
|----------3-----|-0-----------||------------------|------------------|
|----------2--2--|-1-----------||------------------|------------------|
|----------0--2--|-2----5--7---||------------------|------------------|
|-2--2-2-2----0--|-2----3--5---||-7---7---7---7----|-5---5---5---5----|
|-0--0-0-0-------|-0---------5-||---7---7---7---7\-|---5---5---5---5\-|


  E E E E E E S S S S   E. S E E Q  E +E     Q  E E Q  E E
|---------------------|--------------------|-0--------------|
|---------------------|--------------------|-0--------------|
|---------------------|--------------------|-1------5--7----|
|---------------------|----------7---------|-2------5--7----|
|---5---5---7-----5h7-|-2--2-2-2-5--7------|-2--2-2-3--5----|
|-3---3---5---5h7-----|-0--0-0-0----5-(5)\-|-0--0-0------7\-|


                                         H.=H
  E. S E E Q  E +E     Q  E E Q  E E     Q  E E Q  E E
|--------------------|-0--------------||----------------|
|--------------------|-0--------------||----------------|
|----------7---------|-1------5--7----||----------------|
|----------7---------|-2------5--7----||--------7-------|
|-2--2-2-2-5--7------|-2--2-2-3--5----||----2-2-5--7-7\-|
|-0--0-0-0----5-(5)\-|-0--0-0------7\-||-0--0-0----5-5\-|


  Q  E E Q  E E    Q  E E Q  E E
|----------------|----------------|
|----------------|----------------|
|----------------|----------------|
|--------5--7----|--------7-------|
|-2--2-2-3--5----|----2-2-5--7-7\-|
|-0--0-0------7\-|-0--0-0----5-5\-|


                  1/4
  Q  Q  Q  S S E   q
|-0--0-----------|----||
|-0--0-----------|----||
|-1--1-----7-7-7-|-7--||
|-2--2--5--7-7-7-|-7--||
|-2--2--3--5-5-5-|-5--||
|-0--0-----------|----||


 Outro
  Q=40             Q=50              Q=60              Q=70
 4/4
   E      +S    S    E      +S    S    E      +S    S    E      +S    S
|--------------10--(10)----------10--(10)----------10--(10)----------10--|
|-10b12==(10)-(10)--10b12==(10)-(10)--10b12==(10)-(10)--10b12==(10)-(10)-|
|------------------------------------------------------------------------|
|------------------------------------------------------------------------|
|------------------------------------------------------------------------|
|------------------------------------------------------------------------|


  Q=80              Q=90              Q=100             Q=110
    E      +S    S    E      +S    S    E      +S    S    E      +S    S
|-(10)----------10--(10)----------10--(10)----------10--(10)----------10--|
|--10b12==(10)-(10)--10b12==(10)-(10)--10b12==(10)-(10)--10b12==(10)-(10)-|
|-------------------------------------------------------------------------|
|-------------------------------------------------------------------------|
|-------------------------------------------------------------------------|
|-------------------------------------------------------------------------|


  Q=120            Q=130            Q=140            Q=150
   E      +S    S   E      +S    S   E      +S    S   E      +S    S
|--------------10---------------10---------------10---------------10--|
|-10b12==(10)-(10)-10b12==(10)-(10)-10b12==(10)-(10)-10b12==(10)-(10)-|
|---------------------------------------------------------------------|
|---------------------------------------------------------------------|
|---------------------------------------------------------------------|
|---------------------------------------------------------------------|


  Q=160                                                                 Q=80
                                                                         TP     TP TP TP TP TP TP TP
   E      +S    S   E      +S    S   E      +S    S   E      +S    S     E      E  E  E  E  E  E  E
|--------------10---------------10---------------10---------------10--|-10-----10-10-10-10-10-10-10|
|-10b12==(10)-(10)-10b12==(10)-(10)-10b12==(10)-(10)-10b12==(10)-(10)-|-10b13==10-10-10-10-10-10-10|
|---------------------------------------------------------------------|----------------------------|
|---------------------------------------------------------------------|----------------------------|
|---------------------------------------------------------------------|----------------------------|
|---------------------------------------------------------------------|----------------------------|


                                TP
   a  H     S   S   S   S  Q    W          W          +Q   Q   H
|-10-10--------------------0--|----------|----------|---------------*|
|-10r10-----------------x--0--|-8--------|-8--------|-(8)--8\-------*|
|-------------------x------1--|-7--------|-7--------|-(7)--7\-------*|
|---------------x----------2--|-6--------|-6--------|-(6)--6\-------*|
|-----------x--------------2--|-7--------|-7--------|-(7)--7\-------*|
|-----0----(0)-(0)-(0)-(0)-0--|----------|----------|---------------*|

1000 views - 20 January 2013
2000 views - 27 September 2013

I do not own any of these tabs.
comments
We did not receive enough feedback on this tab! Please rate:
print report bad tab
1 2 3 4 5
I want to post or [tab]
guest
You may want to rate the tab now too:
select rating
Please do not post tabs as comments. Select "correction" instead!