Oops, an error
Loading. Please wait.

Working Man Tab

by Rush
ver1
ver1

Whole song

Interactive

More versions @911Tabs.com
136,389 views 243 this week
20 commentsread comments
1 2 3 4 5
excellent!
x 45
Autoscroll
+/-
esc
set tempo
stop
Contributor
NEW! There's an official Ultimate Guitar app which is ideal
for learning songs when you're away from computer. Get the app
WARNING: You are trying to view
                                    content from Ultimate-Guitar.com
                                    in an unauthorized application,
                                    which is prohibited.

                                    Please use an official Ultimate
                                    Guitar Tabs application for iPhone,
                                    iPad or Android to access legitimate
                                    chords, guitar, bass, and drum tabs
                                    from Ultimate-Guitar.com database.

                                    Type "ultimate guitar tabs" in Apple
                                    App Store's or Android Market's
                                    search to find the application.
I was looking at the other tabs for this song and my gosh... so here is my full, correct version.

Gtr I (E A D G B E) - 'Alex Lifeson Rhythm'
Gtr II (E A D G B E) - 'Alex Lifeson Lead'

   Intro
    Q=80
   4/4
    Gtr I
             ~~~~~~            ~    ~
    E. S E E Q  Q     E. S E E Q  S E S
||------------------|--------------------||
||o-----------------|-------------------o||
||------------------|--------------------||
||------------------|--------------------||
||o-2--2-2-2-5------|-2--2-2-2-3--3h5---o||
||--0--0-0-0----5\--|-0--0-0-0--------0--||


     Verse 1
               ~~~~~~            ~    ~
      E. S E E Q  Q     E. S E E Q  S E S
|-||------------------|--------------------|
|-||o-----------------|--------------------|
|-||------------------|--------------------|
|-||------------------|--------------------|
|-||o-2--2-2-2-5------|-2--2-2-2-3--3h5----|
|-||--0--0-0-0----5\--|-0--0-0-0--------0--|


           ~~~~~~            ~    ~
  E. S E E Q  Q     E. S E E Q  S E S   E. S E E Q  Q    H    Q  E E
|-----------------|-------------------|----------2-----|-0-------------|
|-----------------|-------------------|----------3-----|-0-------------|
|-----------------|-------------------|----------2--2--|-1-------------|
|-----------------|-------------------|----------0--2--|-2----5--7-----|
|-2--2-2-2-5------|-2--2-2-2-3--3h5---|-2--2-2-2----0--|-2----3--5-----|
|-0--0-0-0----5\--|-0--0-0-0--------0-|-0--0-0-0-------|-0---------7\--|


                                 Chorus
  E. S E E Q  Q    H    Q  E E    E E E E E E E E    E E E E E E E E
|----------2-----|-0-----------||------------------|------------------|
|----------3-----|-0-----------||------------------|------------------|
|----------2--2--|-1-----------||------------------|------------------|
|----------0--2--|-2----5--7---||------------------|------------------|
|-2--2-2-2----0--|-2----3--5---||-7---7---7---7----|-5---5---5---5----|
|-0--0-0-0-------|-0---------5-||---7---7---7---7\-|---5---5---5---5\-|


                       1.
  E E E E E E S S S S   Q  E E Q  E E   Q  E E Q  E E
|---------------------|---------------|----------------|
|---------------------|---------------|----------------|
|---------------------|---------------|----------------|
|---------------------|--------7------|--------5--7----|
|---5---5---7-----5h7-|-2--2-2-5--7---|-2--2-2-3--5----|
|-3---3---5---5h7-----|-0--0-0----5-0-|-0--0-0------7\-|


  E. S E E Q  E E   E. S E E Q  E E
|-----------------|--------------------||
|-----------------|-9--9-9------------o||
|-----------------|-9--9-9-------------||
|----------7------|-9--9-9---5--7------||
|-2--2-2-2-5--7---|-7--7-7-7-3--5-----o||
|-0--0-0-0----5-0-|-0--0-0-0------7\---||


 Guitar Solo 1
  2.
  Gtr II
  ~~~~~~ ~        ~
  Q  E E Q  E E   Q  S S S S S S S S S S S  S
|---------------|-----------------------------|
|-5--5S7-7--7-7-|-8--8-7-8-7---7--------------|
|---------------|------------9---9-7-9-7-6--7-|
|---------------|-----------------------------|
|---------------|-----------------------------|
|---------------|-----------------------------|
|
| Gtr I
| Q  Q   Q  Q     Q  Q       Q       E   E
|---------------|-----------------------------|
|---------------|-----------------------------|
|---------------|-----------------------------|
|--------7------|------------5-------7--------|
|-2--2---5--7---|-2--2-------3-------5--------|
|-0--0------5---|-0--0-------------------7\---|


          |-3-|
  S S S S T T T S S S   +S  S S T T S S T T S
|---------------------------------------------|
|---------------------------------------------|
|---------------------------------------------|
|-9-7-5-7-5h7p5---5-7b9r(7)---7-7p5---5-------|
|---------------7-----------7-------7---7p5---|
|-------------------------------------------7-|
|
| Q       Q              Q          Q
|---------------------------------------------|
|---------------------------------------------|
|---------------------------------------------|
|------------------------7--------------------|
|-2-------2--------------5----------7---------|
|-0-------0-------------------------5---------|


  S S S S S S T T S S S S  S  E     S       S
|------------------------------------------10--|
|-----------------------8-10-10b12-10b12==(10)-|
|-----------7-9p7---7s9------------------------|
|-----5-7s9-------9----------------------------|
|-5-7------------------------------------------|
|----------------------------------------------|
|
| Q       Q         Q         E     E
|----------------------------------------------|
|----------------------------------------------|
|----------------------------------------------|
|-------------------5---------7----------------|
|-2-------2---------3---------5----------------|
|-0-------0-------------------------7\---------|


   +E   E  +S   T     +T   +S   S  T T S  S S  S  T      +T  S S
|-(10)-10-(10)-----------------10---------------------------------|
|-(10)-10-(10)r10b12-(10)-(10)----10p8---10-8-10-10pb12r(10)p8----|
|--------------------------------------9-----------------------9--|
|-----------------------------------------------------------------|
|-----------------------------------------------------------------|
|-----------------------------------------------------------------|
|
|   Q       Q                      Q           Q
|-----------------------------------------------------------------|
|-----------------------------------------------------------------|
|-----------------------------------------------------------------|
|----------------------------------7------------------------------|
|---2-------2----------------------5-----------7------------------|
|---0-------0----------------------------------5------------------|


                  |-3--|
  E  E     +S   S T  T T S S S S S     +T  +T  S S  S
|-----------------------------------------------------|
|-8-12b15r(12)-12-8h10p8---8--------------------------|
|------------------------9---9-7-9b11==(9)r(9)------7-|
|----------------------------------------------7h9----|
|-----------------------------------------------------|
|-----------------------------------------------------|
|
| Q         Q              Q            E        E
|-----------------------------------------------------|
|-----------------------------------------------------|
|-----------------------------------------------------|
|--------------------------5------------7-------------|
|-2---------2--------------3------------5-------------|
|-0---------0------------------------------------7\---|


                                    |--3--|       |----3----|
  Q      +S  +S     +S  S     +S  S T +T  T S S S T     +T  T S
|----------------------------------------------------------------|
|----------------------------------------------------------------|
|-9b11===(9)r(9)b11-(9)-9b11==(9)-9-9r(9)-7---7-9-9pb11r(9)p7----|
|-------------------------------------------9-----------------9--|
|----------------------------------------------------------------|
|----------------------------------------------------------------|
|
| Q       Q                    Q              Q
|----------------------------------------------------------------|
|----------------------------------------------------------------|
|----------------------------------------------------------------|
|------------------------------7---------------------------------|
|-2-------2--------------------5--------------7------------------|
|-0-------0-----------------------------------5------------------|


                                       Chorus
  S T T S S S S S S T T S S S a Q       E E E E E E E E   E E E E E E E E
|------------------------------------||-----------------|------------------|
|------------------------------------||-----------------|------------------|
|-9-9p7---7--------------------------||-----------------|------------------|
|-------9---9-8-7-5-7p5---5----------||-----------------|------------------|
|-----------------------7---7-7p5----||-7---7---7---7---|-5---5---5---5----|
|------------------------------------||---7---7---7---7-|---5---5---5---5\-|
|
| Q         Q       Q           E E     E E E E E E E E   E E E E E E E E
|------------------------------------||-----------------|------------------|
|------------------------------------||-----------------|------------------|
|------------------------------------||-----------------|------------------|
|-------------------5-----------7----||-----------------|------------------|
|-2---------2-------3-----------5----||-7---7---7---7---|-5---5---5---5----|
|-0---------0---------------------7\-||---7---7---7---7-|---5---5---5---5\-|


                        Bass Break
  Gtr I
  E E E E E E S S S S    S E. Q  H
|---------------------||--------------|
|---------------------||--------------|
|---------------------||--------------|
|---------------------||--------------|
|---5---5---7-----5h7-||-2------------|
|-3---3---5---5h7-----||-0------------|


          Gtr II
                    |-----3------|
  H    Q   T  T  S  X      +X   +X   T  T  T
|--------------------------------------------|
|--------------------------------------------|
|---------------12-14b16==(14)r(14)p12----12-|
|---------12h14------------------------14----|
|--------------------------------------------|
|--------------------------------------------|


 Guitar Solo 2
  E5          E5                                   E5       E5    E5  E5
  Gtr I
   S     S  S  S            S             S        S    S S S S S S S S S
   |     |  |  |            |             |        |    | | | | | | | | |
   /     o  /  /            o             /        /    o / / / / / o / o

   T  T  S  S  T      +T   +T       +T   +T   +T   T S.   S S S S S S S S
|-------------------------------------------------------------------------|
|-------------------------------------------------------------------------|
|-----------------------------------------------------------7p6---7p6---7p|
|-14p12----12-14b16==(14)r(14)b16==(14)r(14)-(14)\-7----------------------|
|-------14----------------------------------------------------------------|
|-------------------------------------------------------------------------|


  E5    E5      E5      E5    E5  E5
  S S S S S S   S S S   S S S S S S   S
  | | | | | |   | | |   | | | | | |   |
  / o / / o /   / o /   / / / / o /   o

  S S S S S T T S S T T S S S S S T T S
|---------------------------------------|
|---------------------------------------|
|-6-------------------------------------|
|---9-5-7-5-7p5---5-----------5---------|
|---------------7---7p5---5-7---7-7p5---|
|-----------------------7-------------7-|


  E5    E5      E5      E5          E5      E5
  S S S S  S  S S S S   S   S   S   S   S   S     S
  | | | |  |  | | | |   |   |   |   |   |   |     |
  / o / /  o  / / o /   /   /   /   /   o   /     o

                                            |----5----|
  Q       +S  S S S T T T T T T T T T T T T T T T   T T
|-------------------------------------------------------|
|-------------------------------------------------------|
|-------------------------------------------------------|
|-------------------------------------------------------|
|-5-------(5)p4h5p4h5p4h5p4h5p4h5p4h5p4h5p4h5p4h5p==4h5p|
|-------------------------------------------------------|


  E5          E5          E5          E5          E5  E5
  S   S   S   S   S   S   S   S   S   S   S   S   S S S   S
  |   |   |   |   |   |   |   |   |   |   |   |   | | |   |
  /   o   /   /   o   /   /   o   /   /   /   /   / o /   o

  T T T T T T T T T T T T T T T T T T T T T T T T S S T T S
|--------------------------------------------------------------|
|--------------------------------------------------------------|
|--------------------------------------------------------------|
|--------------------------------------------------------------|
|-4h5p4h5p4h5p4h5p4h5p4h5p4h5p4h5p4h5p4h5p4h5p4h5-4s2-0--------|
|-------------------------------------------------------3p0----|


  E5    E5    E5      E5      E5      E5
  S S S S S S S S  S  S S S   S   S   S   S
  | | | | | | | |  |  | | |   |   |   |   |
  / o / / o / / o  /  / / /   /   o   /   o

  H               +E.     T T T T T T T T T T
|---------------------------------------------|
|---------------------------------------------|
|---------------------------------------------|
|-2---------------(2)---------7---------------|
|-2---------------(2)-----5h7---7p5---5h7-7p5-|
|-0---------------(0)---------------7---------|


  E5        E5            E5          E5          E5    E5
  S   S S   S       S S   S   S   S   S   S   S   S   S S   S
  |   | |   |       | |   |   |   |   |   |   |   |   | |   |
  /   o /   /       o /   /   o   /   /   /   /   /   o /   o

  T T S T T X X X X S T T T T T T T T T T T T T T T T S T T T T
|----------------------------------------------------------------|
|----------------------------------------------------------------|
|----------------------------------------------------------------|
|---------------7-7-5-------5-7-5-----------5-7-5-----8-7-5---8--|
|---5-7-7-5---5-------7-5---------7-5---5-7-------7-5-------7----|
|-7---------7-------------7-----------7--------------------------|


  E5          E5            E5            E5             E5                  E5
  S   S   S   S   S   S     S   S     S   S      S   S    S        S         S   S
  |   |   |   |   |   |     |   |     |   |      |   |    |        |         |   |
  /   o   /   /   o   /     /   o     /   /      /   /    /        o         /   o

                                |-3-|
  T T T T T T T T T T T X X T T T T T T T T X X  T T T T  T  T     T     +T  T T T T
|------------------------------------------------------------------------------------|
|-----------------------------------------------10-8---8-10-10b11-10b12r(10)-8-------|
|-------------------------------------9-7---7-9------9-------------------------9-7-9-|
|-7-5---5-7-8-7-5---5-7-8-8-7-5-7-8-9-----9------------------------------------------|
|-----7-----------7------------------------------------------------------------------|
|------------------------------------------------------------------------------------|


  E5            E5        E5           E5          E5      E5
   S     S   S  S   S   S S  S      S  S  S  S       S   S S    S
   |     |   |  |   |   | |  |      |  |  |  |       |   | |    |
   /     o   /  /   o   / /  o      /  /  /  /       /   o /    o

             ~~~~
   E         E     +S   S S  S     +E     S  S      +S   S T  T T  T
|-----------10----(10)----0-10b12-(10)---10-10pb12-(10)-10-7h10p7----|
|-10b12====(10)---(10)-10-----------------------------------------10-|
|--------------------------------------------------------------------|
|--------------------------------------------------------------------|
|--------------------------------------------------------------------|
|--------------------------------------------------------------------|


  E5                    E5                   E5                 E5                E5       E5
  S      S       S      S      S      S       S      S     S     S       S    S    S   S   S   S
  |      |       |      |      |      |       |      |     |     |       |    |    |   |   |   |
  /      o       /      /      o      /       /      o     /     /       /    /    /   o   /   o

  |-----5-----|  |-----5-----| |-----5-----|  |----5-----|
  T  T T    T T  T T  T   T  T T  T T    T T  T T  T   T T T  T  S      +T  T T T  T T T T T T T T
|-7h10p7------7h10----------10p7----7h==10p7----7--------------------------------------------------|
|----------10------7h10p==7------10----------10---10p==8---8-10-10pb12r(10)-8-----10p8---8---------|
|--------------------------------------------------------9--------------------7h9------9---9p7---7-|
|----------------------------------------------------------------------------------------------9---|
|--------------------------------------------------------------------------------------------------|
|--------------------------------------------------------------------------------------------------|


  E5       E5      E5                    E5                               E5    E5
  S    S S S S   S S S         S          S      S     S                   S  S S  S
  |    | | | |   | | |         |          |      |     |                   |  | |  |
  /    o / / o   / / o         /          /      /     /                   /  o /  o

                                                       |-----3------|
  Q          T T S S T    +T  +T     +T  +T   T  T  T  X      +X   +X   T  S  S S  T  T
|---------------------------------------------------------------------------------------|
|---------------------------------------------------------------------------------12h15-|
|-9b11-------9p7---9-7b9==(7)r(7)b9==(7)r(7)s12-------14b15==(14)r(14)-12----12---------|
|----------------9------------------------------12h14---------------------14------------|
|---------------------------------------------------------------------------------------|
|---------------------------------------------------------------------------------------|


  E5                  E5                   E5             E5                   E5          E5
  S     S     S        S        S     S     S  S     S     S     S     S        S     S     S     S
  |     |     |        |        |     |     |  |     |     |     |     |        |     |     |     |
  /     o     /        /        o     /     /  o     /     /     /     /        /     o     /     o

              |------6-------|
  T  T  T  T  T  T  T  T  T  T  T  T  T  T  S  T  T  T  T  T  T  T  T  T  X  X  T  T  T  T  T  T  T  T
|------------------12----------------12-------------14p12----------12h14p12----17p12----17p12----17p12--|
|---15p12----12h15----15p12----12h15----15p12-12----------15p12h15----------15-------15-------15--------|
|---------14----------------14-------------------14-----------------------------------------------------|
|-------------------------------------------------------------------------------------------------------|
|-------------------------------------------------------------------------------------------------------|
|-------------------------------------------------------------------------------------------------------|


  E5             E5                E5                           E5                  E5     E5
   S     S  S     S     S     S     S                S     S     S          S    S    S  S   S   S
   |     |  |     |     |     |     |                |     |     |          |    |    |  |   |   |
   /     o  /     /     o     /     /                o     /     /          /    /    /  o   /   o

                                    |-----3------|
   T  T  S  T  T  T  T  T  T  T  T  T      +T   +T   T  T  T  T  T  T      +S    S   +E      S   S
|----17----15p12--------------------------------------------------------------------------------------|
|-15----14-------15-15-15----12-15-15b17==(15)r(15)p12--------------------------15--(15)----12--15b18-|
|-------------------------14---------------------------14-14-12----14b16==(14)-(14)-(14)r==(14)-------|
|---------------------------------------------------------------12------------------------------------|
|-----------------------------------------------------------------------------------------------------|
|-----------------------------------------------------------------------------------------------------|


  E5                          E5             E5            E5                  E5                E5
    S      S       S           S     S  S    S  S     S    S     S     S        S     S            S  S
    |      |       |           |     |  |    |  |     |    |     |     |        |     |            |  |
    /      o       /           /     o  /    /  o     /    /     /     /        /     o            /  o

                                                                       |--3--|
   +E          a   T      +T   T  T  S  E       T  T  T  S    T  T  T  T  T  T  T  T  T      +T    E
|--------------------------------------------------------------------------------------------------------|
|-(15)pb18r==(15)-15pb17r(15)p12----12-15b18---15p12----15---15p12----12--------------------------15-----|
|--------------------------------14------------------14------------14----14-12----12-14b16==(14)-(14)----|
|------------------------------------------------------------------------------14------------------------|
|--------------------------------------------------------------------------------------------------------|
|--------------------------------------------------------------------------------------------------------|


  E5                               E5                             E5                         E5          E5    E5
    S  S               S             S             S        S       S        S  S             S  S  S     S  S  S  S
    |  |               |             |             |        |       |        |  |             |  |  |     |  |  |  |
    /  o               /             /             o        /       /        o  /             /  /  /     /  o  /  o

                                                                                |----3-----|
   +S.     a   T      +T   +T       +T   +T       +S    a   S      +S    a   S  T     +T   T  S  S  T  T  S  S  S  S
|-----------------------------------------------------------------------------------------------------------------------|
|-(15)--------15-----(15)-(15)-----(15)-(15)-----(15)------15-----(15)------15------------------------------------12b15-|
|-(14)r==(14)-14b16==(14)r(14)b16==(14)r(14)b16==(14)r(14)-14b16==(14)r(14)----14b16r(14)p12----14-12-14-12----12-------|
|--------------------------------------------------------------------------------------------14-------------14----------|
|-----------------------------------------------------------------------------------------------------------------------|
|-----------------------------------------------------------------------------------------------------------------------|


  E5               E5        E5                  E5       E5    E5
    S      S  S    S  S    S  S    S  S           S  S  S  S  S  S  S
    |      |  |    |  |    |  |    |  |           |  |  |  |  |  |  |
    /      o  /    /  o    /  /    o  /           /  /  /  /  o  /  o

   +E         E       E       E       T      +T   S  S  S  S  S  S  S
|---------------------------------------------------------------------|
|-(12)pb15---12b15---13b16---15b17---15b17==(15)r15-12-12-------------|
|---------------------------------------------------------15-14-13-12-|
|---------------------------------------------------------------------|
|---------------------------------------------------------------------|
|---------------------------------------------------------------------|


  E5      E5          E5              E5       E5    E5
   S  S S S   S   S   S S          S  S  S   S S   S S S
   |  | | |   |   |   | |          |  |  |   | |   | | |
   /  o / /   o   /   / o          /  /  /   / /   o / o

   S  S S T T T T T T S T     +T   S  S  T T S T T S S S
|--------------------------------------------------------|
|-------------------------------------8-10p8-------------|
|-11-10-9-7h9-9p7---7-9-9b11==(9)r(9)--------9-9p7---7-7-|
|-----------------9--------------------------------9-----|
|--------------------------------------------------------|
|--------------------------------------------------------|


  E5          E5          E5          E5          E5  E5
  S   S   S   S   S   S   S   S   S   S       S S S S S S
  |   |   |   |   |   |   |   |   |   |       | | | | | |
  /   o   /   /   o   /   /   o   /   /       / / / o / o

  T T T T T T T T T T T T T T T T T T X X X X S S S S S S
|---------------------------------------------------------|
|-7p3p0-5p3p0-7p3p0-5p3p0-7p3p0-5p3p0-7p3p0---------------|
|-------------------------------------------------------7-|
|-------------------------------------------7-5---7-5-----|
|-----------------------------------------------7-----7---|
|---------------------------------------------------------|


  E5          E5          E5          E5    E5     E5
  S   S   S   S   S   S   S   S     S S S S S    S S S
  |   |   |   |   |   |   |   |     | | | | |    | | |
  /   o   /   /   o   /   /   o     / / / / /    o / o

  T T T T T T T T T T T T T T T X X S S S S E      S S
|------------------------------------------------------|
|-7p3p0-5p3p0-7p3p0-5p3p0-7p3p0------------------------|
|--------------------------------------------------7-7-|
|-------------------------------8s7-5---7---6tr5-------|
|-------------------------------------7---7------------|
|------------------------------------------------------|


  E5          E5          E5        E5      E5  E5
  S   S   S   S   S   S   S   S S   S   S S S S S S
  |   |   |   |   |   |   |   | |   |   | | | | | |
  /   o   /   /   o   /   /   o /   /   / / / o / o

  T T T T T T T T T T T T T T S T T T T S S S S S S
|---------------------------------------------------|
|-7p3p0-5p3p0-7p3p0-5p3p0-7p3p0---------------------|
|---------------------------------------------------|
|-------------------------------9-9s7-5---7---4-4-0-|
|---------------------------------------7---7-------|
|---------------------------------------------------|


  E5          E5          E5        E5      E5  E5
  S   S   S   S   S   S   S   S S   S S S   S S S   S
  |   |   |   |   |   |   |   | |   | | |   | | |   |
  /   o   /   /   o   /   /   o /   / / /   / o /   o

  T T T T T T T T T T T T T T S T T S S T T S S T T S
|-----------------------------------------------------|
|-7p3p0-5p3p0-7p3p0-5p3p0-7p3p0-----------------------|
|-----------------------------------7-----------------|
|-------------------------------7s9---7-7p5---7-5h6-0-|
|-------------------------------------------7---------|
|-----------------------------------------------------|


   Interlude
    Gtrs I, II
                              ~~~~~~
    S S T T S S S T T S S S S S +E  S S  3x
||---------------------------------------||
||o-------------------------------------o||
||---------------------------------------||
||----------------------------5-(5)------||
||o-7-7-7p5---7-7-7p5---7-5---------7-5-o||
||----------7---------7-----7------------||


  S S T T S S S T T S S S S S +E  S S
|--------------------------------------|
|--------------------------------------|
|-----------------------------------7--|
|---------------------------5-(5)------|
|-7-7-7p5---7-7-7p5---7-5---------7----|
|---------7---------7-----7------------|


                            ~~~~~~
  S S T T S S S T T S S S S S +E  S S
|-------------------------------------|
|---------------------------8-(8)-----|
|-9-9-9p7---9-9-9p7---9-7---------9-7-|
|---------9---------9-----9-----------|
|-------------------------------------|
|-------------------------------------|


                            ~~~~~~
  S S T T S S S T T S S S S S +S  S S  S
|-----------------------------------------|
|---------------------------8-(8)---8-10--|
|-9-9-9p7---9-9-9p7---9-7---------9-------|
|---------9---------9-----9---------------|
|-----------------------------------------|
|-----------------------------------------|


  Gtr II
   E       E         T T S  S   S S S S S  S  S S S
|---------------------------------------------------|
|-10b12---10b12-----10p8---10---8-------8-----------|
|------------------------9--------9-7-9----9------7-|
|---------------------------------------------7h9---|
|---------------------------------------------------|
|---------------------------------------------------|
|
| Gtr I
|                                       ~~~~~~
|  S    S  T    T S  S   S  T T S S S S S +E    S S
|---------------------------------------------------|
|---------------------------------------------------|
|---------------------------------------------------|
|---------------------------------------5-(5)-------|
|--7----7--7p===5----7---7--7p5---7-5-----------7-5-|
|-----------------7-------------7-----7-------------|


  ~~~~
  W
|----------------------------------------|
|----------------------------------------|
|-9b11-----------------------------------|
|----------------------------------------|
|----------------------------------------|
|----------------------------------------|
|
|                              ~~~~~~
| S    S T T S S S T T S S S S S +E  S S
|----------------------------------------|
|----------------------------------------|
|----------------------------------------|
|------------------------------5-(5)-----|
|-7----7-7p5---7-7-7p5---7-5---------7-5-|
|------------7---------7-----7-----------|


  E5        E5    E5                  E5    E5
  Gtr I
  E S S S S S S S E S E E   E S S S S S S S E S E   E
  |   |   | | | | | | | |   |   |   | | | | | | |   |
  /   /   o / o / / / / /   /   /   o / o / / / /   /

  W                         H             Q     S S S S
|-------------------------|-----------------------------|
|-------------------------|-----------------------------|
|-------------------------|-----------------------------|
|-------------------------|-----------------------------|
|-------------------------|-----------------------7-7-7-|
|-------------------------|-----------------------------|


                E5      E5
  E   S S  S  S S S  S  E S E E
  |     |     | | |  |  | | | |
  /     /     o / o  /  / / / /

  S S S S +Q        +Q.       S S
|-----------------------------------|
|-----------------------------------|
|-----------------------------------|
|-----------------------------------|
|-7-5---5-(5)-------(5)---------5---|
|-----7-----------------------------|


              E5    E5                         E5    E5
  E   S S S S S S S E S  E    E     E  S S S S S S S E   S E     E
  |     |   | | | | | |  |    |     |    |   | | | | |   | |     |
  /     /   o / o / / /  /    /     /    /   o / o / /   / /     /

          ~
  S S S S H             +S  S S S   Q.         S S S S S S S T T S S
|---------------------------------|----------------------------------|
|---------------------------------|----------------------------------|
|---------------------------------|--------------7---7p6-7-6-7p6-----|
|---------------------------------|------------------------------9-8-|
|---5-----------------------------|----------------------------------|
|-----7-5-3-------------(3)-3s5s3-|-0--------------------------------|


                  E5    E5
  E   S   S S   S S S S E   S         E               E
  |       |     | | | | |   |         |               |
  /       /     o / o / /   /         /               /

                                      |----3-----|
  S S T T S T T S S S S S S T    +T  +T     +T  +T  S T T S
|-----------------------------------------------------------|
|-----------------------------------------------------------|
|-----------------------------------------------------------|
|-9-5-7-5-------------5-7-7-5b7==(5)r(5)b7==(5)r(5)---------|
|---------7-7-5---5-7-------------------------------7-7-5---|
|---------------7-----------------------------------------7-|


                                E5    E5
  E   S         S          S  S S S S E   S E   E
  |             |             | | | | |   | |   |
  /             /             o / o / /   / /   /

  S S T    +T  +T     +T  +S  S S S S S S S S S S T     +T
|-----------------------------------------------------------|
|-----------------------------------------------------------|
|-----------------------------------------------------------|
|-----------------------------------------5---7-5-----------|
|-5-5-5b6==(5)r(5)b6==(5)r(5)s4s5s4---5-7---7-----7b10==(7)-|
|-----------------------------------7-----------------------|


                    E5     E5
   E      S   S S S S S S  E S E     E
   |          |   | | | |  | | |     |
   /          /   o / o /  / / /     /

  +S  +S  T T S E   S S E.   S S T T S S
|----------------------------------------|
|----------------------------------------|
|------------------------------------7-7-|
|-------------------7-5s2\-------7-9-----|
|-(7)r(7)-7p5---5------------------------|
|-------------7--------------------------|


                         E5     E5
  E   S S  S  S          S S  S E         S   E     E
  |     |     |          | |  | |         |   |     |
  /     /     o          / o  / /         /   /     /

  S S S S  S  T      +T  S S  S S  S     +S   T T E    S
|--------------------------------------------11-0-------------|
|-------8-10-10pb12r(10)-8---10-8-10b12-(10)----------12b15===|
|---7-9--------------------9----------------------------------|
|-9-----------------------------------------------------------|
|-------------------------------------------------------------|
|-------------------------------------------------------------|


                        E5                  E5
    E        S  S  S  S  S          S     S  E     S            E      E
    |           |     |  |          |     |  |     |            |      |
    /           /     o  /          o     /  /     /            /      /

   +S   +S   S  S  S  S  T     +T   T  T  S  S  S  T      +T   +S   S  S  S
|---------------------------------------------------------------------------|
|-(12)r(12)-----------------------------------------------------------------|
|-----------14-13-13-12-14b16r(14)p12----12------------------------------12-|
|-------------------------------------14----14-12-14b16==(14)r(14)-12h14----|
|---------------------------------------------------------------------------|
|---------------------------------------------------------------------------|


                             E5                E5
    E        S    S     S  S  S  S  S            E     S E           E
    |             |        |  |  |  |            |     | |           |
    /             /        o  /  o  /            /     / /           /

                                                            |--3--|
    E       +S    T  T  S  S  S  S  T      +T   +S   S E    T  T  T  S  S
|-------------------------------------------------------------------------|
|----------------------------------------------------------12-15-12-10-12-|
|-[14]b16r([14])p12----14-12------------------------12--------------------|
|-------------------14-------14-12-14b16==(14)r(14)-----------------------|
|-------------------------------------------------------------------------|
|-------------------------------------------------------------------------|


                                E5             E5
   E           S  S        S  S  S        S  S  E       S    E         E
   |              |           |  |        |  |  |       |    |         |
   /              /           o  /        o  /  /       /    /         /

   |--3--|        |--3--|        |--3--|
   T  T  T  S  S  T  T  T  S  S  T  T  T  S  S  E      +S   +S      S  S  S
|---------------------------------------------------------------------12----|
|-12h15p12----12-12h14p12----12-12h15p12----12-15b17==(15)r(15)b18-15----15-|
|----------14-------------14-------------14---------------------------------|
|---------------------------------------------------------------------------|
|---------------------------------------------------------------------------|
|---------------------------------------------------------------------------|


                             E5           E5
   E      S   S      S    S   S    S   S   E      S   E     E
   |          |           |   |    |   |   |      |   |     |
   /          /           o   /    o   /   /      /   /     /

   E     +S   S     +S   +S   E       +S   E     +S   E     E
|-----------------------------------------------------------------|
|-15b17-(15)-15b17-(15)-(15)-15b17---(15)-15b18-(15)-15b19-15b19--|
|-----------------------------------------------------------------|
|-----------------------------------------------------------------|
|-----------------------------------------------------------------|
|-----------------------------------------------------------------|


                            E5          E5
   E      S   S  S     S     S  S  S     E     S            E              E
   |          |        |     |  |  |     |     |            |              |
   /          /        o     /  o  /     /     /            /              /

                                                                              |-3--|
   E     +S   S  T  T  T  T  S  S  T  T  S  S  T      +T   +S   X  X  X  X S  T T  T
|-----------------------------------------------------------------10-12-10-7-10-7-10-|
|-15b19r(15)----12h15p12----12---------------------------------12--------------------|
|------------14----------14----14-14p12----14-12b14==(12)r(12)-----------------------|
|---------------------------------------14-------------------------------------------|
|------------------------------------------------------------------------------------|
|------------------------------------------------------------------------------------|


                                        E5                    E5
   E         S        S    S    S       S    S        S        E              S     E              E
   |                  |         |       |    |        |        |              |     |              |
   /                  /         o       /    o        /        /              /     /              /

   T  T T  T T  X  X  T T  T T  X  X  T T  T T  X  X  X  X  T  T  T  T  X  X  T  T  T  T  X  X  T  S  S
|-12-10-7----7-10-12-10-7----7-10-12-10-7----7-10-12-15-12----------12-15-12----------12-15-12----12-15b18===|
|---------12--------------12--------------12---------------12-12-15----------12-12-15----------14------------|
|------------------------------------------------------------------------------------------------------------|
|------------------------------------------------------------------------------------------------------------|
|------------------------------------------------------------------------------------------------------------|
|------------------------------------------------------------------------------------------------------------|


                      E5            E5
    E  S S       S  S  S  S      S   E          S    E             E
    |    |          |  |  |      |   |          |    |             |
    /    /          o  /  o      /   /          /    /             /

   +Q        a   S  S  S  S     +S   S  S      +S    S   +T   +T   S  S
|-(15)r====(15)-12----12------------15--------------15------------------|
|------------------15----15b17-(15)----15b17==(15)-(15)-(15)r(15)----12-|
|-----------------------------------------------------------------14----|
|-----------------------------------------------------------------------|
|-----------------------------------------------------------------------|
|-----------------------------------------------------------------------|


                                E5                E5
   E     S     S     S     S     S     S     S     E           S        E              E
   |           |           |     |     |     |     |           |        |              |
   /           /           o     /     o     /     /           /        /              /

                                                               |--3--|        |--3--|  |--3--|
   S  S  T  T  T  T  T  T  T  T  T  T  T  T  T  T  T  X  X  S  T  T  T  T  T  T  T  T  T  T  T  S
|-------------------------------------------------------------------------------------------------|
|-12----15p12----15p12----15p12----15p12----15p12----12-------------------------------------------|
|----14-------14-------14-------14-------14-------14----12----12h16p12----12h16p12----12h16p12----|
|----------------------------------------------------------14----------14----------14----------14-|
|-------------------------------------------------------------------------------------------------|
|-------------------------------------------------------------------------------------------------|


                                               E5                E5
   E                 S     S        S     S     S     S     S     E           S E E
   |                       |              |     |     |     |     |           | | |
   /                       /              o     /     o     /     /           / / /

                           |--3--|
   X  X  T  T  X  X  T  T  T  T  T  T  T  T  T  T  T  T  T  T  T  T  T  T  T  E.  E
|------------------------------------------------------------------------------------|
|------------------------------------------------------------------------------------|
|-12h15-12----12h15p12----15p12----16p12----16p12----16p12----16p12----15p12---------|
|----------14----------14-------14-------14-------14-------14-------14-------14s==8\-|
|------------------------------------------------------------------------------------|
|------------------------------------------------------------------------------------|


    Gtrs I, II
                              ~~~~~~
    S S T T S S S T T S S S S S +E  S S  3x
||---------------------------------------||
||o-------------------------------------o||
||---------------------------------------||
||----------------------------5-(5)------||
||o-7-7-7p5---7-7-7p5---7-5---------7-5-o||
||----------7---------7-----7------------||


  S S T T S S S T T S S S S S +E  S S
|--------------------------------------|
|--------------------------------------|
|-----------------------------------7--|
|---------------------------5-(5)------|
|-7-7-7p5---7-7-7p5---7-5---------7----|
|---------7---------7-----7------------|


                            ~~~~~~                                ~~~~~~
  S S T T S S S T T S S S S S +E  S S   S S T T S S S T T S S S S S +Q
|-------------------------------------|-----------------------------------|
|---------------------------8-(8)-----|---------------------------8-(8)---|
|-9-9-9p7---9-9-9p7---9-7---------9-7-|-9-9-9p7---9-9-9p7---9-7-----------|
|---------9---------9-----9-----------|---------9---------9-----9---------|
|-------------------------------------|-----------------------------------|
|-------------------------------------|-----------------------------------|


                            ~~~~~~                                ~~~~~~
  S S T T S S S T T S S S S S +E  S S   S S T T S S S T T S S S S S +Q
|-------------------------------------|-----------------------------------|
|-------------------------------------|-----------------------------------|
|-------------------------------------|-----------------------------------|
|---------------------------5-(5)-----|---------------------------5-(5)---|
|-7-7-7p5---7-7-7p5---7-5---------7-5-|-7-7-7p5---7-7-7p5---7-5---5-(5)---|
|---------7---------7-----7-----------|---------7---------7-----7-3-(3)---|


            E5    E5                   E5    E5
  Gtr I
  E S S S S S S S E S E E   E  S S S S S S S E S E E
  |   |   | | | | | | | |   |    |   | | | | | | | |
  /   /   o / o / / / / /   /    /   o / o / / / / /

  Gtr II
  W                         H.                   E E
|-0-----------------------|--------------------------|
|-0-----------------------|-3--------------------3-3-|
|-1-----------------------|-1--------------------1-1-|
|-2-----------------------|-0--------------------0-0-|
|-2-----------------------|-2------------------------|
|-0-----------------------|-0------------------------|


             E5    E5
  E  S S S S S S S E S E E
  |    |   | | | | | | | |
  /    /   o / o / / / / /

  H.                   E E
|---------------------------|
|-2--------------------2-2--|
|-2--------------------2-2--|
|-2--------------------2-2--|
|-2-------------------------|
|-0-------------------------|


             E5    E5                    E5    E5
  E  S S S S S S S E S E E   E   S S S S S S S E   S E   E
  |    |   | | | | | | | |   |     |   | | | | |   | |   |
  /    /   o / o / / / / /   /     /   o / o / /   / /   /

                             <
  H.                   E E   S S S S S S S S S S S S S S S S
|-0--------------------0-0-|---------------------------------|
|-0--------------------0-0-|---------------------------------|
|-1--------------------1-1-|---------------------------------|
|-2------------------------|---------------------------------|
|-2------------------------|-7-7-7-7-7-7-7-7-7-7-7-7-7-7-7-7-|
|-0------------------------|-0-0-0-0-0-0-0-0-0-0-0-0-0-0-0-0-|


              E5    E5
  E   S S S S S S S E   S  E  E
  |     |   | | | | |   |  |  |
  /     /   o / o / /   /  /  /

  S S S S S S S S S S S S  Q
|-------------------------------|
|-------------------------------|
|-------------------------14\---|
|-------------------------------|
|-7-7-7-7-7-7-7-7-7-7-7-7-------|
|-0-0-0-0-0-0-0-0-0-0-0-0-------|


 2/4     4/4
  Gtrs I, II
  Q  Q    Q  E E Q  E E    E. S E E Q  Q
|-------|----------------|----------------|
|-------|----------------|----------------|
|-------|----------------|----------------|
|-7-----|--------5--7----|----------7-----|
|-5--7--|-2--2-2-3--5----|-2--2-2-2-5--7--|
|----5--|-0--0-0------7\-|-0--0-0-0----5--|


                             Verse 3
  Gtr II
                                       ~~~~~~            ~    ~
  H         Q      Q          E. S E E Q  Q     E. S E E Q  S E S
|-0---------8-----10-------||-----------------|--------------------|
|-0--------11b13--13b15----||-----------------|--------------------|
|-1------------------------||-----------------|--------------------|
|-2------------------------||-----------------|--------------------|
|-2------------------------||-2--2-2-2-5------|-2--2-2-2-3--3h5----|
|-0------------------------||-0--0-0-0----5\--|-0--0-0-0--------0--|
|
| Gtr I
|                                      ~~~~~~            ~    ~
| E. S E E  Q      E    E     E. S E E Q  Q     E. S E E Q  S E S
|--------------------------||-----------------|--------------------|
|--------------------------||-----------------|--------------------|
|--------------------------||-----------------|--------------------|
|-----------5------7-------||-----------------|--------------------|
|-2--2-2-2--3------5-------||-2--2-2-2-5------|-2--2-2-2-3--3h5----|
|-0--0-0-0--------------7\-||-0--0-0-0----5\--|-0--0-0-0--------0--|


  Gtrs I, II
           ~~~~~~            ~    ~
  E. S E E Q  Q     E. S E E Q  S E S   E. S E E Q  Q    H    Q  E E
|-----------------|-------------------|----------2-----|-0-------------|
|-----------------|-------------------|----------3-----|-0-------------|
|-----------------|-------------------|----------2--2--|-1-------------|
|-----------------|-------------------|----------0--2--|-2----5--7-----|
|-2--2-2-2-5------|-2--2-2-2-3--3h5---|-2--2-2-2----0--|-2----3--5-----|
|-0--0-0-0----5\--|-0--0-0-0--------0-|-0--0-0-0-------|-0---------7\--|


                                 Chorus
  E. S E E Q  Q    H    Q  E E    E E E E E E E E    E E E E E E E E
|----------2-----|-0-----------||------------------|------------------|
|----------3-----|-0-----------||------------------|------------------|
|----------2--2--|-1-----------||------------------|------------------|
|----------0--2--|-2----5--7---||------------------|------------------|
|-2--2-2-2----0--|-2----3--5---||-7---7---7---7----|-5---5---5---5----|
|-0--0-0-0-------|-0---------5-||---7---7---7---7\-|---5---5---5---5\-|


  E E E E E E S S S S   E. S E E Q  E +E     Q  E E Q  E E
|---------------------|--------------------|-0--------------|
|---------------------|--------------------|-0--------------|
|---------------------|--------------------|-1------5--7----|
|---------------------|----------7---------|-2------5--7----|
|---5---5---7-----5h7-|-2--2-2-2-5--7------|-2--2-2-3--5----|
|-3---3---5---5h7-----|-0--0-0-0----5-(5)\-|-0--0-0------7\-|


                                         H.=H
  E. S E E Q  E +E     Q  E E Q  E E     Q  E E Q  E E
|--------------------|-0--------------||----------------|
|--------------------|-0--------------||----------------|
|----------7---------|-1------5--7----||----------------|
|----------7---------|-2------5--7----||--------7-------|
|-2--2-2-2-5--7------|-2--2-2-3--5----||----2-2-5--7-7\-|
|-0--0-0-0----5-(5)\-|-0--0-0------7\-||-0--0-0----5-5\-|


  Q  E E Q  E E    Q  E E Q  E E
|----------------|----------------|
|----------------|----------------|
|----------------|----------------|
|--------5--7----|--------7-------|
|-2--2-2-3--5----|----2-2-5--7-7\-|
|-0--0-0------7\-|-0--0-0----5-5\-|


                  1/4
  Q  Q  Q  S S E   q
|-0--0-----------|----||
|-0--0-----------|----||
|-1--1-----7-7-7-|-7--||
|-2--2--5--7-7-7-|-7--||
|-2--2--3--5-5-5-|-5--||
|-0--0-----------|----||


 Outro
  Q=40             Q=50              Q=60              Q=70
 4/4
   E      +S    S    E      +S    S    E      +S    S    E      +S    S
|--------------10--(10)----------10--(10)----------10--(10)----------10--|
|-10b12==(10)-(10)--10b12==(10)-(10)--10b12==(10)-(10)--10b12==(10)-(10)-|
|------------------------------------------------------------------------|
|------------------------------------------------------------------------|
|------------------------------------------------------------------------|
|------------------------------------------------------------------------|


  Q=80              Q=90              Q=100             Q=110
    E      +S    S    E      +S    S    E      +S    S    E      +S    S
|-(10)----------10--(10)----------10--(10)----------10--(10)----------10--|
|--10b12==(10)-(10)--10b12==(10)-(10)--10b12==(10)-(10)--10b12==(10)-(10)-|
|-------------------------------------------------------------------------|
|-------------------------------------------------------------------------|
|-------------------------------------------------------------------------|
|-------------------------------------------------------------------------|


  Q=120            Q=130            Q=140            Q=150
   E      +S    S   E      +S    S   E      +S    S   E      +S    S
|--------------10---------------10---------------10---------------10--|
|-10b12==(10)-(10)-10b12==(10)-(10)-10b12==(10)-(10)-10b12==(10)-(10)-|
|---------------------------------------------------------------------|
|---------------------------------------------------------------------|
|---------------------------------------------------------------------|
|---------------------------------------------------------------------|


  Q=160                                                                 Q=80
                                                                         TP     TP TP TP TP TP TP TP
   E      +S    S   E      +S    S   E      +S    S   E      +S    S     E      E  E  E  E  E  E  E
|--------------10---------------10---------------10---------------10--|-10-----10-10-10-10-10-10-10--|
|-10b12==(10)-(10)-10b12==(10)-(10)-10b12==(10)-(10)-10b12==(10)-(10)-|-10b13==10-10-10-10-10-10-10--|
|---------------------------------------------------------------------|------------------------------|
|---------------------------------------------------------------------|------------------------------|
|---------------------------------------------------------------------|------------------------------|
|---------------------------------------------------------------------|------------------------------|


                                TP
   a  H     S   S   S   S  Q    W          W          +Q   Q   H
|-10-10--------------------0--|----------|----------|---------------*|
|-10r10-----------------x--0--|-8--------|-8--------|-(8)--8\-------*|
|-------------------x------1--|-7--------|-7--------|-(7)--7\-------*|
|---------------x----------2--|-6--------|-6--------|-(6)--6\-------*|
|-----------x--------------2--|-7--------|-7--------|-(7)--7\-------*|
|-----0----(0)-(0)-(0)-(0)-0--|----------|----------|---------------*|
comments
print report bad tab
20 comments total. Showing first comments.
+3 reply
farcry wrote on July 7 2005, 12:00 am

my favorite song, bitchin tab, I like the hendrix chord at the very end

0 reply
farcry wrote on July 7 2005, 12:00 am

my favorite song, bitchin tab, I like the hendrix chord at the very end

0 reply
tommy2112 wrote on January 2 2006, 12:26 pm

great tab. very nice work on the solo.

I want to post or [tab]
guest
You may want to rate the tab now too:
select rating
Please do not post tabs as comments. Select "correction" instead!