Oops, an error
Loading. Please wait.

Chin Up Cheer Up Tab

449 views 3 this week
no commentswrite comment
1 2 3 4 5
excellent!
x 1
Autoscroll
+/-
esc
set tempo
stop
Contributor
Difficulty
intermediate
WARNING: You are trying to view
                                    content from Ultimate-Guitar.com
                                    in an unauthorized application,
                                    which is prohibited.

                                    Please use an official Ultimate
                                    Guitar Tabs application for iPhone,
                                    iPad or Android to access legitimate
                                    chords, guitar, bass, and drum tabs
                                    from Ultimate-Guitar.com database.

                                    Type "ultimate guitar tabs" in Apple
                                    App Store's or Android Market's
                                    search to find the application.
-------------------------------------------------------------------------------
                         CHIN UP, CHEER UP - Ryan Adams
-------------------------------------------------------------------------------

Artist: Ryan Adams
Song: Chin Pp, Cheer Up
Album: Demolition (2002)

Tabbed by: crimson-dync (soldync@yahoo.com.ar)
Tuning: Standard


[Note: The "##" means "silence".]


INTRO
   o           o           o           o             Eb          o           Bb          o   
e|-------------------------------------------------|-------------------------------------------------|
B|-------------------------------------------------|-------------------------------------------------|
G|-------------------------------------10b12-10b12-|-8-----------12r10-8--10-------------------------|
D|-------------------------##-8--10-8--------------|-------------------------------------##-8--10-8--|
A|-------------------------------------------------|-------------------------------------------------|
E|-------------------------------------------------|-------------------------------------------------|

   Eb          o           Bb          o             Cm          o           Gm          o   
e|-------------------------------------------------|-------------------------------------------------|
B|-------------------------------------------------|-------------------------------------------------|
G|-10b12-10b12-------8--10-------------8-----7/----|/5-----------7/----8--5b7-------7r5--------------|
D|-------------------------------------------------|-------------------------------------8-----##----|
A|-------------------------------------------------|-------------------------------------------------|
E|-------------------------------------------------|-------------------------------------------------|

   G#          o           Eb          o             Eb          o           Bb          o   
e|-------------------------------------------------|-------------------------------------------------|
B|-------------------------------------------------|-------------------------------------------------|
G|-------------------------------------------------|-------------------------------------------8-----|
D|----------8--------------------8-----------------|-------------------------------------8--10-------|
A|-10/11-------11p10-8-p6--8b10-----10r8-----------|-5-/6--------------------##----------------------|
E|-------------------------------------------6-----|-------------------------------------------------|

   Eb          o           Bb          o             Cm          o           Gm          o   
e|-------------------------------------------------|-------------------------------------------------|
B|-------------------------------------------------|-------------------------------------------------|
G|-10b12----10b12r10-------8-----------------------|-------------------------------------------------|
D|----------------------------10b12r10-8-----------|-8-h10----8-h10----10p8--------------------------|
A|-------------------------------------------------|-------------------------6--8--6-----8b10--8b10--|
E|-------------------------------------------------|-------------------------------------------------|

   G#          o           Eb          o             Eb          o           Bb          o   
e|-------------------------------------------------|-------------------------------------------------|
B|-------------------------------------------------|-------------------------------------------------|
G|-------------------------------------------------|-------------------------------------------------|
D|----------------8--10----8-----------------------|-------------------------------------------------|
A|-8-/6--10/11-------------------------##-10-8-/6--|-5-/6--------##----------------------------------|
E|-------------------------------------------------|-------------------------------------------------|



(1.11)
   Cm          o           Gm          o             G#          o           Eb          o   
e|-------------------------------------------------|-------------------------------------------------|
B|-------------------------------------------------|-------------------------------------------------|
G|-------------------------12r10-8--7--------------|-------------------------------------------------|
D|----------------------------------------8--------|-------------------------------------------------|
A|-------------------------------------------10/11-|-11----11-10----10-8--------------10/8-/6--------|
E|-------------------------------------------------|-------------------------6-----------------------|

   Eb          o           Bb          o             Eb          o           Bb          o   
e|-------------------------------------------------|-------------------------------------------------|
B|-------------------------------------------------|-------------------------------------------------|
G|----------------------------------7-----7--------|-7b8---------------------7--------7-/5-----------|
D|-8-----------##-------6-/8-----------------------|-------------------------------------------8-----|
A|-------------------------------------------------|-------------------------------------------------|
E|-------------------------------------------------|-------------------------------------------------|

   Cm          o           Gm          o             G#          o           Eb          o   
e|-------------------------------------------------|-------------------------------------------------|
B|-------------------------------------------------|-------------------------------------------------|
G|-------------------------------------------------|-------------------------------------------------|
D|-8-/--/5-----------------10b12-------------------|-10----------8-----------------------------------|
A|-------------------------------------------------|-------------------11----10----------------------|
E|-------------------------------------------------|-------------------------------------------------|


SOLO (1.26)
   Eb          o           Bb          o             Eb          o           Bb          o   
e|-------------------------------------------------|-------------------------------------------------|
B|-------------------------------------------------|-------------------------------------------------|
G|-------------12r10-8--10-------------8-----------|-------10b12-12r10-8--10-------------8--7-/5-----|
D|-##-8--10-8-----------------------------10/8-----|-##----------------------------------------------|
A|-------------------------------------------------|-------------------------------------------------|
E|-------------------------------------------------|-------------------------------------------------|

   Cm          o           Gm          o             G#          o           Eb          o   
e|-------------------------------------------------|-------------------------------------------------|
B|-------------------------------------------------|-------------------------------------------------|
G|-------------------------------------------------|-------------------------------------------------|
D|-8--10----10/8-----------------------------------|-------------------------------------------------|
A|----------------10-8-----8b10r-8b10--------------|-------------(8)10/8-/6-----6--8--10/-----/13----|
E|----------------------------------------10-8-/6--|-8--------11-------------------------------------|

   Eb          o           Bb          o             Eb          o           Bb          o   
e|-------------------------------------------------|-------------------------------------------------|
B|-11-------8--------------------------------------|-11-------8-/--/6--------------------------------|
G|-------8-----------8--10-~~-~~-~~-~~-~~----8-----|-------------------8--10----------------12/10/8--|
D|----------------8-----------------------10-------|-------------------------------------------------|
A|-------------------------------------------------|-------------------------------------------------|
E|-------------------------------------------------|-------------------------------------------------|

   Cm          o           Gm          o             G#          o           Eb          o   
e|-------------------------------------------------|-------------------------------------------------|
B|-------------------------------------------------|-------------------------------------------------|
G|-------------------------------------------------|-------------------------------------------------|
D|-8-h10-##----10b12-------10/12-13----13----10----|----------8-----10-------8--------------8-h10----|
A|-------------------------------------------------|-11-------------------------------8-/10----------|
E|-------------------------------------------------|-------------------------------11----------------|

   Eb          o           Bb          o
e|-------------------------------------------------|
B|-------------------------------------------------|
G|-8-----------------------------------------------|
D|-------------------------------------------------|
A|-------------------------------------------------|
E|-------------------------------------------------|



************************************

| /   slide up
| \   slide down
| h   hammer-on
| p   pull-off
| ~   vibrato
| b   Bend
| pb  Pre-bend
| br  Bend release


************************************
comments
We did not receive enough feedback on this tab! Please rate:
print report bad tab
1 2 3 4 5
I want to post or [tab]
guest
You may want to rate the tab now too:
select rating
Please do not post tabs as comments. Select "correction" instead!