Oops, an error
Loading. Please wait.

The Weary Kind Tab

ver1
ver1

Interactive

More versions @911Tabs.com
17,819 views 3 this week
no commentswrite comment
1 2 3 4 5
accurate
x 3
Autoscroll
+/-
esc
set tempo
stop
Difficulty
intermediate
WARNING: You are trying to view
                                    content from Ultimate-Guitar.com
                                    in an unauthorized application,
                                    which is prohibited.

                                    Please use an official Ultimate
                                    Guitar Tabs application for iPhone,
                                    iPad or Android to access legitimate
                                    chords, guitar, bass, and drum tabs
                                    from Ultimate-Guitar.com database.

                                    Type "ultimate guitar tabs" in Apple
                                    App Store's or Android Market's
                                    search to find the application.
The Weary Kind (Crazy Heart Sound Track)
Song Written by: Ryan Bingham
Tabbed by: Sri

Standard Tuning

Fingerpicked with all chords strummed by the thumb. Basically you
should alternate picking between your middle and your thumb.
You can use fingerpicks for the tune if you like, but it sounds more
authetic without them

(/) Slide Up  (\) Slide Down  (h) Hammer On  (p) Pull Off  (b) Bend (r) Release (v) Vibrato

[ ]- This symbol cuts off a section. If This Symbol Pops Up and There is A Repeat
x2, repeat the section twice before moving to the next section

Intro

    D    Repeat x2     A    Repeat x2     Bm    Reapeat x2   G   Repeat x2
e|--2-----2--2-------]-0-----0--0-------]-2-----------------]3-----------------]
B|--3--3-----3-----3-]-2--------2-----2-]-3-----3--3-----3--]3-----3--3-----3--]
G|--2-----------2----] 2--2-----------2-]-4--4--4--4-----4--]0--0--0--0-----0--]
D|-------------------]-2-----------2----]-4-----------4-----]0-----------0-----]
A|-------------------]------------------]-------------------]2-----------------]
E|-------------------]------------------]-------------------]3-----------------]


    D Repeat x2      A Repeat x2       D Repeat x2      G Don't Repeat  D Repeat x2
e|--2-----2--2----2-]0---------------]-2-----2--2----2-]3--------------]2---2--2--|
B|--3-----3--3----3-]2-----2--2----2-]-3-----3--3----3-]3-----3--3-----]3---3--3--|
G|--2--2--------2---]2-----2--2----2-]-2--2--------2---]0-----0--0-----]2-2-----2-|
D|------------------]2--2--------2---]-----------------]0--0--------0--]0---------|
A|------------------]----------------]-----------------]2--------------]----------|
E|------------------]----------------]-----------------]3--------------]----------|

With the last part of the intro that is derived off the D Chord you can continue the pattern for
as you like or are comfortable with. Then you can continue on to the first verse.

Verse(s):

Your      Hearts    on    the    Loose, You Roll Them Sevens With Nothing To Lose

    D    Repeat x2     A    Repeat x2     Bm    Reapeat x2   G   Repeat x2
e|--2-----2--2-------]-0-----0--0-------]-2-----------------]3-----------------]
B|--3--3-----3-----3-]-2--------2-----2-]-3-----3--3-----3--]3-----3--3-----3--]
G|--2-----------2----] 2--2-----------2-]-4--4--4--4-----4--]0--0--0--0-----0--]
D|-------------------]-2-----------2----]-4-----------4-----]0-----------0-----]
A|-------------------]------------------]-------------------]2-----------------]
E|-------------------]------------------]-------------------]3-----------------]

And   this   aint no   place   for  the  weary     kind

    D Repeat x2      A Repeat x2       D Repeat x2      G Don't Repeat  D Repeat x2
e|--2-----2--2----2-]0---------------]-2-----2--2----2-]3--------------]2---2--2--|
B|--3-----3--3----3-]2-----2--2----2-]-3-----3--3----3-]3-----3--3-----]3---3--3--|
G|--2--2--------2---]2-----2--2----2-]-2--2--------2---]0-----0--0-----]2-2-----2-|
D|------------------]2--2--------2---]-----------------]0--0--------0--]0---------|
A|------------------]----------------]-----------------]2--------------]----------|
E|------------------]----------------]-----------------]3--------------]----------|


You        called     all  your  shots,    Shooting 8 ball in a corner truck stop

    D    Repeat x2     A    Repeat x2     Bm    Reapeat x2   G   Repeat x2
e|--2-----2--2-------]-0-----0--0-------]-2-----------------]3-----------------]
B|--3--3-----3-----3-]-2--------2-----2-]-3-----3--3-----3--]3-----3--3-----3--]
G|--2-----------2----] 2--2-----------2-]-4--4--4--4-----4--]0--0--0--0-----0--]
D|-------------------]-2-----------2----]-4-----------4-----]0-----------0-----]
A|-------------------]------------------]-------------------]2-----------------]
E|-------------------]------------------]-------------------]3-----------------]

Somehow   This Dont Feel Like   Home,   Anymore

    D Repeat x2      A Repeat x2       D Repeat x2      G Don't Repeat  D Repeat x2
e|--2-----2--2----2-]0---------------]-2-----2--2----2-]3--------------]2---2--2--|
B|--3-----3--3----3-]2-----2--2----2-]-3-----3--3----3-]3-----3--3-----]3---3--3--|
G|--2--2--------2---]2-----2--2----2-]-2--2--------2---]0-----0--0-----]2-2-----2-|
D|------------------]2--2--------2---]-----------------]0--0--------0--]0---------|
A|------------------]----------------]-----------------]2--------------]----------|
E|------------------]----------------]-----------------]3--------------]----------|


Chorus:

And    This     Aint  No     Place,    For    The   Weary  Kind

    Bm    Repeat x2     A     Repeat x2     D  Keep Going, Repeat Pattern if wanted
E|--2----------------]-0------------------]-2-----2--2-----2--2-----2--2-----|
B|--3-----3--3-----3-]-2-----2--2-------2-]-3-----3--3-----3--3-----3--3-----|
G|--4-----4--4-----4-]-2-----2--2-------2-]-2--2--------2-----2--2--------2--|
D|--4--4--------4----]-2--2--------2------]----------------------------------|
A|-------------------]--------------------]----------------------------------|
E|-------------------]--------------------]----------------------------------|

And    This  Aint No   Place To Lose Your Mind

    Bm  Repeat x2      D    Repeat x2     A   Repeat x2  Keep Going In Pattern If Wanted
E|--2----------------]-2-----2--2-----2--]0-----------------|
B|--3-----3--3-----3-]-3-----3--3-----3--]2-----2--2-----2--|
G|--4-----4--4-----4-]-2--2--------2-----]2-----2--2-----2--|
D|--4--4--------4----]-0-----------------]2--2--------2-----|
A|-------------------]-------------------]------------------|
E|-------------------]-------------------]------------------|


And This Aint No Place To Fall Behind

    G   Repeat x2      D    Repeat x2     A    Keep Going In Pattern if Wanted
E|--3----------------]-2-----2--2-----2-]-0-----------------|
B|--3-----3--3-----3-]-3-----3--3-----3-]-2-----2--2-----2--|
G|--0-----0--0-----0-]-2--2--------2----]-2-----2--2-----2--|
D|--0--0--------0----]------------------]-2--2--------2-----|
A|--2----------------]------------------]-------------------|
E|--3----------------]------------------]-------------------|

Pick Up Your Crazy Heart and Give It One More Try

    G   Repeat x2      D    Repeat x2     A    Keep Going In Pattern if Wanted
E|--3----------------]-2-----2--2-----2-]-0-----------------|
B|--3-----3--3-----3-]-3-----3--3-----3-]-2-----2--2-----2--|
G|--0-----0--0-----0-]-2--2--------2----]-2-----2--2-----2--|
D|--0--0--------0----]------------------]-2--2--------2-----|
A|--2----------------]------------------]-------------------|
E|--3----------------]------------------]-------------------|


End Pattern (Chords)

D  A  Bm  G

D  A  D G D
comments
We did not receive enough feedback on this tab! Please rate:
print report bad tab
1 2 3 4 5
I want to post or [tab]
guest
You may want to rate the tab now too:
select rating
Please do not post tabs as comments. Select "correction" instead!