Oops, an error
Loading. Please wait.

Malaguena Tab

3,347 views 9 this week
no commentswrite comment
1 2 3 4 5
please rate
add to favorites launch autoscroll
font size
0
reset
Autoscroll
+/-
esc
set tempo
stop
Contributor
WARNING: You are trying to view
                                    content from Ultimate-Guitar.com
                                    in an unauthorized application,
                                    which is prohibited.

                                    Please use an official Ultimate
                                    Guitar Tabs application for iPhone,
                                    iPad or Android to access legitimate
                                    chords, guitar, bass, and drum tabs
                                    from Ultimate-Guitar.com database.

                                    Type "ultimate guitar tabs" in Apple
                                    App Store's or Android Market's
                                    search to find the application.
Malaguena - Sabicas
-= As seen performed on youtube by Grisha Goryachev =-
Sorry I couldn't finish tabbing the entire thing, and watch out for my mistakes!  Enjoy 
playing through this!

*some chords are actually strummed in 1 string at a time, just so fast they could be 
called a chord.  Made sense in the guitar pro file hahah, you'll see:


Capo 1st fret(optional)
     ^                                       ^
     H        T T T T E  E   S  S    E.  E.  Q    T T T T T T T T  T.T. T
E||--5--------5-5-5-5-5--5h--6p-5-|--4---5---6------6-----------6----6--8-|
B||--5----------------------------|-------------------6-------6---10------|
G||--6----------------------------|---------------------7---7-------------|
D||--7----------------------------|-----------------------8---------------|
A||--0----------------------------|----------x----8-L---------------------|
E||-------------------------------|----------6----L-L-L-L-L---------------|


  X  E  Q.     X T.  T. T. T.  T.T. T.  T. T. T.     Q    E.   Q    E.   E
--L-10--L------L-8h-10p-8p-6-----6--8--10p-8p-6--|--------6---------6-------|
------------------------------10-----------------|--10--------10--------10--|
-------------------------------------------------|--------------------------|
-------------------------------------------------|--------------------------|
-------------------------------------------------|--------------------------|
--------6------L---------------------------------|--------------------------|


  E  E.  E  Q    T T. T. T. T. T. T.    T. T. T. T. T. T. H        E.  T
-----6------5----L----5--L-----------|-----5--L--------------------------|
--L----------------------5--L--------|--5--L--5--L-----------------------|
----------------------------6--L--6--|--L--------6--L--------------------|
-------------------------------7--L--|--------------7--L-----------------|
---------x---------7--L--------------|-----------------7--L--------------|
---------5--L----L-------------------|--------------------5--------L---L-|


  ^                                       ^
  H        T T T T E  E   S  S    E.  E.  Q    T T T T T T T T  T.T. T
--5--------5-5-5-5-5--5h--6p-5-|--4---5---6------6-----------6----6--8-|
--5----------------------------|-------------------6-------6---10------|
--6----------------------------|---------------------7---7-------------|
--7----------------------------|-----------------------8---------------|
--0----------------------------|----------x----8-L---------------------|
-------------------------------|----------6----L-L-L-L-L---------------|


  X  E  Q.     X T.  T. T. T.  T.T. T.  T. T. T.     Q    E.   Q    E.   E
--L-10--L------L-8h-10p-8p-6-----6--8--10p-8p-6--|--------6---------6-------|
------------------------------10-----------------|--10--------10--------10--|
-------------------------------------------------|--------------------------|
-------------------------------------------------|--------------------------|
-------------------------------------------------|--------------------------|
--------6------L---------------------------------|--------------------------|


                 (cont. next page)
  E  E.  E  Q    T                 T. T. T. T. T. T.
-----6------5----L--------------------5--L-----------|
--L--------------------------------------5--L--------|
--------------------------------------------6--L--6--|
-----------------------------------------------7--L--|
---------x-------------------------7--L--------------|
---------5--L----L-----------------------------------|


           THE MAIN PURPOSE IS TO GET THE TAB DOWN.  I'M.....
  T. T. T. T.                                                 T. T. H        E.
-----5--L-----------------------------------------------------------------------|
--5--L--5--L--------------------------------------------------------------------|
--L--------6--------------------------------------------------L-----------------|
--------------------------------------------------------------7--L--------------|
-----------------------------------------------------------------7--L-----------|
--------------------------------------------------------------------5--------L--|


   T  T  T  T  H        S.  S. S  S  S
--10-10-10-10-10--------9--10-12-13-10-|
--------------11-----------------------|
--------------10-----------------------|
---------------0-----------------------|
---------------------------------------|
---------------------------------------|


   ....SURE YOU COULD FIX THE TIMING AS YOU PLAY IT
   S                                               S  S S H         Q
--12-----------------------------------------------9-10-7-8---------8----|
-------------------------------------------------------------------10----|
--------------------------------------------------------------------9----|
-------------------------------------------------------------------10----|
--------------------------------------------------------------------8----|
-------------------------------------------------------------------------|


   Q     H         Q       Q     H        T  T T  T T S.
---L-----8---------8----|--L-----8------------------8-L--|
---L----10--------10----|--L----10---------------10-L----|
---L-----9---------9----|--L-----9-------------9--L-L-L--|
---L----10--------10----|--L----10----------10-L--L-L-L--|
---L--------------------|--------8--------8--L-L--L-L-L--|
------------------------|--------------------------------|


  E  S T T T T  H        S. S.     S  S S  S S S S E  E   S  S. S. S
--L----8-8-8-8--8--------7--8--|--10-11-8-10-7-8-5-6--Lh--8p-6p-5--L-|
--L-------------8--------------|-------------------------------------|
--L-------------9--------------|-------------------------------------|
--L------------10--------------|-------------------------------------|
--L----------------------------|-------------------------------------|
-------------------------------|-------------------------------------|


  H        H           H        T. T. T. T. T. Q    X
--6--------6--------|--6-----------------6--L--L----L-|
--6--------6--------|--6--------------6--L--L--L----L-|
-----------7--------|--7-----------7--L--L--L--L----L-|
--------------------|---------------------------------|
--5--------5--------|--5--------5--L--L--L--L--L----L-|
--------------------|---------------------------------|


   T  T  T  T  T S T T. T. T. T. T. T. T. T. T. T. T. T. T. T. T. T.
--10-10-10-10-10-L---6--8--5--6-----5--------------------------------|
---------------------------------8-----6--8--5--6-----5--------------|
---------------------------------------------------7-----5--7-----5--|
---------------------------------------------------------------8-----|
---------------------------------------------------------------------|
---------------------------------------------------------------------|


  T. T. T. T. T. T. T. T. T. T. T. T. T. T. T. Q    T.
-------------------------------------------------------|
-------------------------------------------------------|
-------------------------------------------------------|
--7--8--5--7-----5-------------------------------------|
--------------8-----7--8--5--7-----5-------------------|
--------------------------------8-----6--8--5--6----L--|


  Q.     T. T. T. T. T. T. T. T. T. T. T. T. S    E  Q     Q    Q    E
-----------------------------------------------|------------------------|
---------------------------------------0--3--L-|--L--1s----5----5----L--|
---------------------------------0--2----------|------------------------|
---------------------------0--2----------------|------------------------|
------------------0--1--3----------------------|------------------------|
--L------0--1--3-------------------------------|------------------------|


  H        Q    S E   S     S E  E  E  E  Q.     S
-------------------------|-------------------------|
--L--------L----4-1h--3h-|--1----------------------|
-------------------------|----3--2--1-----2------L-|
-------------------------|-------------------------|
-------------------------|-------------0--L------L-|
-------------------------|-------------------------|


  H        T. T. T. T. T. T. T. T. T. S X    W
-----------5--L--L-----------------5--L-L-|--L----------------|
--------------5--L--L-----------5--L--L-L-|--L----------------|
--L--------------2--L--L-----2--L--L--L-L-|--L----------------|
--------------------2--L--2--L--L-----L-L-|--L----------------|
--L--------------------0--L--L--------L-L-|-------------------|
------------------------------------------|-------------------|


  NOTICE THE CHANGE OF TEMPOS EVERY 5 SECONDS?
  E                                            E  E  X X T T T. E  E  X X X E  S
---------------------------------------------------------0---------0-----------0-|
-----------------------------------------------------------8-L-----8--L--------8-|
-------------------------------------------------------------6--L--6--L--------6-|
----------------------------------------------------------------7--L-------------|
--------------------------------------------------------------------------7-L----|L
--------------------------------------------------5--L---------------------------|


  TO MAKE THE BARS COMPLETE WHILE "TRYING" TO KEEP
  X                                                X X E  X X T T T. E  E  X X E
--------------------------------------------------------------0---------0--------|
--L------------------------------------------------L------------8-L-----8--L-----|
--L------------------------------------------------L--------------6--L--6--L-----|
---------------------------------------------------------------------7--L--------|
-------------------------------------------------------------------------------7-|
-------------------------------------------------------5--L----------------------|


             IF YOU CAN FIND THE CORRECT/PERFECT NOTES TO IT,
  X X T T T. E                                                E  X E  E  E  E  X
------0-------------------------------------------------------0-------0-----0----|
--------9-L---------------------------------------------------9--L----9-----9----|
----------7--L------------------------------------------------7--L----7-----7----|
-------------8------------------------------------------------L----------8-------|
-------------------------------------------------------------------8--L--------8-|
--L-L---L----L------------------------------------------------L----L-------------|


  PLEASE FIX THE G-PRO FILE
  X                         E  E  E  E  T T T E  E  E  X
----------------------------0-----0-----0--------0-----0-|
----------------------------9-----9-------8-L----8-----8-|
----------------------------7-----7---------6-L--6-----6-|
-------------------------------8--------------7--L-------|
--L-------------------------L-----------------------7--L-|
-------------------------------------5-------------------|


  X X X X X X E  X T T T. E  E  X X E  E  X S. X
-------------------0---------0---------0---------|
--L-L-L-L-L-L--------8-L-----8--L------8--L------|
--L-L-L-L-L-L----------6--L--6--L------6--L------|
--------------------------7--L-------------------|
------------------------------------7------------|
--------------5--L--------------------------6--L-|


  X X T T T. E  E  X E  E  E  E  X T X X X    X E  E  E  E  T T T E  E  E  X
------0---------0-------0-----0------------|----0-----0-----0--------0-------|
--------9-L-----9--L----9-----9------------|----9-----9-------8-L----8-------|
----------7--L--7--L----7-----7------------|----7-----7---------6-L--6-------|
-------------8--L----------8---------------|-------8--------------7--L-------|
---------------------8--L--------8-L-L-L-L-|--L-L-----------------------7--L-|
--L----------------------------------------|-------------5-------------------|


  Q    T T T E.  E.  E.  S.    S. E.  T T T E.  E  E.  S S
-----------3-L---5---3------|-------------3-L---3----------|
---------3-L-------------6--|--L--------5-L-----5----------|
-------4-L------------------|---------4-L------------------|
-------------3---L---L---L--|---------------5---L----------|
----------------------------|-----3----------------3---L---|
--3-------------------------|------------------------------|


  Q    T T T E.  E.  E.  S.    S. E.  T T T E.  E  E.  S S
-----------1-L---3---1------|-------------1-L---1----------|
---------1-L-------------4--|--L--------3-L-----3----------|
-------2-L------------------|---------2-L------------------|
-------------1---L---L---L--|---------------3---L----------|
----------------------------|-----1----------------1---L---|
--1-------------------------|------------------------------|


  Q    T T T E.  E.  E.  S.
-----------1-L---0---1------|
---------3-L-------------3--|
-------2-L------------------|
--0----------3--------------|
----------------------------|
----------------------------|


  S. E.  T. T. T. T. T. T. T. T. T. T. T. T. T. T. T. X
-----0---3--1--0----------------------------------------|
--L---------------3--2--1--0----------------------------|
------------------------------2--1--0-------------------|
---------------------------------------3--2--0--2--3--2-|
--------------------------------------------------------|
--------------------------------------------------------|


  X X X T. T. T. E.  T T T T. T E.  Q    X    H
------------------------------5-L---L----L-|--L--------|
---------------------------5--L-L---L----L-|--L--------|
-------------------------2-L--L-L---L----L-|--L--------|
--L-L-L-0--------------2-L-L--L-L---L----L-|--L--------|
-----------3--2--0---0-L-L-L--L-L---L------|-----------|
-------------------------------------------|-----------|


  ^
  H        E.  S  S S S  S    Q    T. S. E  Q    E  S. X
---------------------------|-------------8--L----6--6h-8h-|
--3--------5---6s-L-6-Ls-8-|--8----L----------------------|
--3------------------------|-------5--L--L--L-------------|
--3--------L---------------|------------------------------|
---------------------------|------------------------------|
--0------------------------|------------------------------|


                  ^
  T E  E.  S. E.  Q    S S    W                   S. E.  S. E.  S. E.   S. T.X
--L-6--5----------5----L-5-|--5----------------|------------5------8------13-L-|
-----------8--6---6----L-6-|--6----------------|-----6-------------------------|
------------------5----L-5-|--5----------------|--5--L----------5--L---10--L---|
------------------7----L---|--7----------------|---------7--L------------------|
------------------8----L---|-------------------|-------------------------------|
---------------------------|-------------------|-------------------------------|


  T. T.  S. E.  S.  E.  S.  Q        Q    Q    Q    E.  S
--L--L-----13------12------10----|--10----8----6----6---6-|
---------------------------------|-------------6----6---6-|
--------10--L---9---L---7---L----|---7---------7----7---7-|
---------------------------------|------------------------|
---------------------------------|------------------------|
---------------------------------|-------------6----L---L-|


                          ^
  T H.           E.  T    H        E.  S  S S S  S
--L-6------------L---L-|---------------------------|
--L-6------------L---L-|--3--------5---6s-L-6-Ls-8-|
--L-7------------L---L-|--3------------------------|
-----------------------|--3--------L---------------|
-----------------------|-----------L---------------|
--L-L------------L-----|--3------------------------|


                                                 ^                    ^
  Q    T. S. E  Q    E  S. X     T E  E.  S. E.  Q    S S    H        H
-------------8--L----6--6h-8h-|--L-6--5----------5----L-5-|--5--------5--------|
--8----L----------------------|-----------8--6---6----L-6-|--6--------6--------|
-------5--L--L--L-------------|------------------5----L-5-|--5--------5--------|
------------------------------|------------------7----L-7-|--7--------7--------|
------------------------------|------------------8----L---|-----------8--------|
------------------------------|---------------------------|--------------------|


  ^
  Q    T S. E.  S. E.   S. T.X    T. T.  S. E.  S.  E.  S.  Q
------------5------8------13-L-|--L--L-----13------12------10----|
--6----L-----------------------|---------------------------------|
--5----L--------5--L---10--L---|--------10--L---9---L---7---L----|
--7----L-7--L------------------|---------------------------------|
--8----L-----------------------|---------------------------------|
-------------------------------|---------------------------------|


                ^        ^        ^        ^
  E   E   Q     Q     S. E  T     H        Q    E   S S
--8--10--12----12----12-12--L-|---L--------6----Ls--8-8-|
---------------11-------11--L-|------------5----L-------|
---------------12-------12--L-|---L--------5----L-------|
---------------10-------10--L-|---L--------5------------|
------------------------------|-------------------------|
------------------------------|-------------------------|


                                                             ^
  E    E   E  E    E.   E.   E      S.  T   T. E  E.  S. E.  E  S. X
--Ls--10--10--Ls--13---12---10--|--10h-12p-10-10--8---6--5---5--L--L-|
--------------------------------|----------------------------4--L--L-|
--------------------------------|----------------------------5--L--L-|
--------------------------------|----------------------------3--L--L-|
--------------------------------|------------------------------------|
--------------------------------|------------------------------------|


                ^
  E  X H        Q    S. X    Q.     Q     E  S  S  S S
--5--L-5------------------|----------------------------|
--4--L-4--------4----L--L-|--8------6s----4--4h-6p-4-3-|
--5--L-5--------5----L--L-|----------------------------|
-------3--------3----L--L-|----------------------------|
----------------3----L--L-|----------------------------|
--------------------------|----------------------------|


  S. S S. E  E   E  T T T T T E  S.    Q    E.  E.  E.  T T T T T T
------------------------------------|-------------------------------|
--L--3-Ls-2--2s--3--------3-L-L--L--|--L----3---1---0---------1-L-L-|
------------------------3-L-L-L--L--|--L--------------------0-L-L-L-|
----------------------3-L-L-L-L--L--|--L------------------2-L-L-L-L-|
--------------------1-L-L---L-L--L--|-------------------3-L-L-L-L-L-|
------------------------------------|-------------------------------|


                     ^
  Q.     E.  E.  E.  S    Q.     E  Q    Q       H        S S S S S S S S
-----------------------|----------------------|---------------0-L-----0-L-|
--L------1-------------|----------------------|-------------2-L-2-L-2-L-2-|
--L----------3---2---3-|--L------L--3----2----|--1------------------------|
--L------------------3-|--L------L------------|---------------------------|
--L------------------1-|--L------L------------|-----------0-L-----4-L-----|
-----------------------|----------------------|---------------------------|


  S S S S S S S S S S S S S S S S    S S S S S S S S S S S S S S S S
------0-L-----0-L-----0-L-----0-L-|------1-L-----1-L-----1-L-----1-L-|
--L-2-L-2-L-2-L-2-L-2-L-2-L-2-L-2-|--L-3-L-3-L-3-L-3-L-3-L-3-L-3-L-3-|
----------0-L---------------------|--------------------------0-L-----|
--2-L-------------3-L-----2-L-----|--0-L-----2-L-----3-L-------------|
----------------------------------|----------------------------------|
----------------------------------|----------------------------------|


  S S S S S S S S S S S S S S S S    S S S S S S S S S S S S S S S S
------1-L-----1-L-----0-L-----0-L-|------0-L-----0-L-----0-L-----0-L-|
--L-3-L-3-L-3-L-3-L-2-L-2-L-2-L-2-|--L-2-L-2-L-2-L-2-L-2-L-2-L-2-L-2-|
--2-L-----3-L---------------------|----------0-L---------------------|
----------------------------------|--2-L-------------3-L-----2-L-----|
------------------0-L-----4-L-----|----------------------------------|
----------------------------------|----------------------------------|


  S S S S S S S S S S S S S S S S    S S S S S S S S S S S S S S S S
------1-L-----1-L-----1-L-----1-L-|------1-L-----1-L-----0-L-----0-L-|
--L-3-L-3-L-3-L-3-L-3-L-3-L-3-L-3-|--L-3-L-3-L-3-L-3-L-2-L-2-L-2-L-2-|
--------------------------0-L-----|--2-L-----3-L---------------------|
--0-L-----2-L-----3-L-------------|----------------------------------|
----------------------------------|------------------0-L-----4-L-----|
----------------------------------|----------------------------------|


  S S S S S S S S S S S S S S S S    S S S S S S S S S S S S S S S S
------0-L-----1-L-----1-L-----1---|------1-L-----1-L-----1-L-----1-L-|
--L-2-L-2-L-3-L-3-L-3-L-3-L-3-L-3-|----3-L-3-L-3-L-3-L-3-L-3-L-3-L-3-|
------------------2-L-------------|------------------3-L-------------|
--2-L-----0-L-------------0-------|----------2-L-------------0-L-----|
----------------------------------|--3-L-----------------------------|
----------------------------------|----------------------------------|


  S S S S S S S S H           E   E  E  E  H           H        Q     Q
------1-L-----1-L----------|------------------------|----------------------|
--L-3-L-3-L-3-L-3-L--------|------------------------|----------------------|
---------------------------|---------------1--------|----------------------|
---------------------------|------------------------|----------------------|
--3-L-----1-L-----0--------|------------------------|----------------------|
---------------------------|--1h--2--3--4--L--------|--3--------1p----0----|


                                     T
  E  X X T T T. E  E  X X X E  S X X E  X X T T
---------0---------0----L------0---L--------0---|
-----------0-L-----0--L-L------0-L-L----------0-|
-------------1--L--1--L-L------1-L-L------------|
--------------------------2-L----L--------------|
----------------2-----L--------------0--L-L---L-|
--L--L-L-----L-----------------------x----------|


                 T                             T
  T E  E  E   E  E  T T T E  E     X X E  S X. E  X T T T E  E  X. E   E
-------0------------0--------0--|---------0---------0--------0--L---------|
--L----1--------------0-L----0--|--L------0-L---------0-L----1--L---------|
--2-L--2----------------1-L--1--|--L------1-L-----------2-L--2--L---------|
----------2h--3-----------------|----2-L----L----------------------2h--3--|
----3---------L--x--------2-----|--L-----------0--L-----L-3-----L---------|
-----------------0------L-------|--------------x--------------------------|


  E  X T T T. E  E  X X E  S  E  S. S    S S E.  E.  E.  E.  S. T
-------0---------0---------0--------5-|----------5-------5------3-|
---------0-L-----0--L------0--L-------|--5-------5-------5--------|
-----------1--L--1--L------1--L-------|----5-----5-------5--------|
----------------------2-L--Ls-L--7----|------6-------7------------|
--------------2-----L-----------------|---------------------------|
--0--L-----L---------------------5----|------L---------------3--L-|


  T T T S S E.  E.  E.  E.  T    T T T T T S S S E.  E.  E.  S.
--L-L-L---------3-------3-----|------------1---------1-------1--|
--------3-------3-------3-----|--------------1-------1-------1--|
----------4-----4-------4-----|----------------2-----2-------2--|
------------4-------5---------|------------------2-------3------|
------------------------------|---------------------------------|
------------L---------------1-|--L-L-L-L-L-------L--------------|


  S. S. S S S E.  E.  E.  S     S S S S S S S S S S E.  E.
--L-----0---------0-------0--|--L-L---5-----------5-7---5---|
--L-------0-------0-------0--|--L-L-----5-------5-----------|
--L---------1-----1-------1--|--L-L-------5---5-------------|
--------------1-------2---Ls-|------7-------7---------------|
-----------------------------|------------------------------|
-----0--------L--------------|------5-------L---------------|


  S S S S S S S S E.  E.  S S    S S S S S S E.  E.  S T. T. T. T.
----3-----------3-5---3-----1-|------------1-3---1---0-5--3--1--0--|
------3-------3---------------|--1-------1-------------------------|
--------4---4-----------------|----2---2---------------------------|
----------5-------------------|------3-----------------------------|
------------------------------|------------------------------------|
--3-------L---------------1---|------L---------------0-------------|


  S S S S S S S S S S S S S S S S    S E  T. T. T. T. T. T. H        T
----------------------------------|----------------------0--L--------L-|
--3-1-0---------------------------|-------------------0-----L--------L-|
--------2-0-----------------------|----------------1--------L--------L-|
------------3-2-0-----------------|-------------2-----------L--------L-|
------------------3-2-0-2-3-2-0---|----------2--------------L--------L-|
--------------------------------3-|--1-0--0-----------------L--------L-|


                                   ^             ^                    ^
  W                   T T T T Q    E.   E  E.  S S    E.  Q    Q      Q    S
--L----------------|-------------------------------|-------------------------|
--L----------------|--------3-L----3p---1--1---L---|------1----3S----/5----L-|
--L----------------|------0---L----0----L--0---L-4-|--L---0----0------4----L-|
--L----------------|----2-----L----2----L--L---L-2-|--L---------------5----L-|
--L----------------|-------------------------------|-------------------------|
--L----------------|--3-----------------L--------3-|--L---------------3----L-|


     ^        ^    ^                     ^
  E  Q     T. Q    Q    S X    S. S Q    Q    E.  S S.
----------------------------|--------------------------|
--L--5p----3--3----1----1-L-|--L--1-1----1----1---1-1--|
--L--4--------4----0----0-L-|--L--0-0----0----0---0-0--|
--L--5--------5----2----2-L-|--L--2-2----2----2---2-2--|
-------------------3--------|-------L----3----------L--|
--L--3--------3-------------|--------------------------|


     ^                                              ^      ^
  E  Q    Q    Q    S  S    X S X T. T. T. T. T. T. Q.     Q
-------------------------|--------------------------------------|
--L--1----1----0----3h-5-|--L-3-L-1--3--1--0--1--0---------1----|
--L--0----0----0---------|--------------------------2------2----|
--L--2----2----2---------|--------------------------3------3----|
-----3-------------------|--------------------------3------3----|
-------------------------|--------------------------1-----------|


      ^                           ^
  E.  Q    Q     Q     S     S S  H        E  E  S S
--------------------------|--------------------------|
-----------0h----1-----3h-|--L-L-/5--------3--5--L-L-|
--L---2----L--------------|-------4-----------4--L-L-|
--L---2----L--------------|-------5-----------5--L-L-|
------3----L--------------|--------------------------|
--1-----------------------|-------3------------------|


             ^                   ^           ^
  E   E  E.  Q    E.  S S    T T Q    E.  E  Q    E
--------------------------|------3----1---0----------|
--5p--3--3---1----1---1-1-|--L-L------1---1--3----1--|
--4---L--4---0----0---0-0-|--L-L-0----0---0--0----0--|
--5---L--5---2----2---2-2-|--L-L-2-----------2----2--|
-------------3----------L-|------3-----------3-------|
---------3----------------|--------------------------|


       ^                   ^                        ^      ^ ^ ^ ^
  S E  Q    T. T. T. T. T. Q    S X    T T T T T E  Q.     S S S E  T
----0-------0-----------------------|------------1--1------1-1-1-1--L-|
--L-1--3-------3--1--3--1--0----L-L-|----------0-L--0------0-0-0-0--L-|
--L-0--0----------------------------|--------0---L--0------0-0-0-0--L-|
--L----2----------------------------|------3-----L--3------3-3-3-3--L-|
-------3----------------------------|----2-------L--2------2-2-2-2--L-|
---------------------------3----L-L-|--3---------L--3------3-3-3-3--L-|


     ^            ^                            ^
  T. Q    E.  E.  Q    S  X    T. S S S S Q    E.  S. S. T. T
--L--1----0-------0----0h-1-|--Lh-0---0--------0---L----------|
--------------3-------------|-------3---3-1----1---L--L--1--L-|
--L-------------------------|------------------0---0----------|
--L-------------------------|------------------2---L--L-------|
--L-------------------------|-------------3-----------3--L----|
-----3------------3---------|---------------------------------|


  S. S E.  S E.  S E.  S S.    S S E.  S E.   S  S Q    S
-------------------1-----5--|--L---3-----1h---3p-1-0------|
--L----3-----5--------------|---------------------------4-|
----------------------------|-----------------------------|
-----0-L---2-L---3-L---7-L--|--L-5-L---3-L----L--L--------|
--L-------------------------|-----------------------------|
----------------------------|-----------------------------|


  Q    T T T T T T T T T T T T T T T T T T T T T T T T
-----------0-0-0-0---4-4-4-4---7-7-7-7---0-0-0-0---4-4-|
--L----L-----------------------------------------------|
-------------------------------------------------------|
-------------------6-----L---6-----L-------------6---L-|
-------------------------------------------------------|
---------0-----L-----------------------0-------L-------|


  T T T T T T T T T T T T T T T T T T T T T T T T T T T T T T T T
--4-4---7-7-7-7---5-5-5-5---8-8-8-8---7-7-7-7---5-5-5-5---3-3-3-3-|
------------------------------------------------------------------|
------------------------------------------------------------------|
----L-6-----L-------------7-------L-----------7-------L-5-------L-|
----------------0-----L-------------0-------L---------------------|
------------------------------------------------------------------|


  T T T T T T T T T T T T T T T T T T T T T T T T T T T T T T T T
----1-1-1-1---0-0-0-0---4-4-4-4---7-7-7-7---0-0-0-0---4-4-4-4---7-|
------------------------------------------------------------------|
------------------------------------------------------------------|
--3-------L-----------6-------L-6-------L-----------6-------L-6---|
------------------------------------------------------------------|
------------0-------L---------------------0-------L---------------|


  T T T  T  T  T  T  T T  T  T  T  T T  T  T  T  T
--7-7-7----13-13-13-13---12-12-12-12---11-11-11-11-|----||
---------------------------------------------------|----||
--------10-------------9-----------L-8-----------L-|----||
------L--------------------------------------------|----||
---------------------------------------------------|----||
---------------------------------------------------|----||




Duration Legend
---------------
W - whole
H - half
Q - quarter
E - 8th
S - 16th
T - 32nd
X - 64th
. - note dotted
|-n-|  - n-tuplets


Tablature Legend
----------------
L - tied note
x - dead note
g - grace note
(n) - ghost note
> - accentuded note
NH - natural harmonic
AH - artificial harmonic
TH - tapped harmonic
SH - semi harmonic
PH - pitch harmonic
h - hammer on
p - pull off
b - bend
br - bendRelease
pb - preBend
pbr - preBendRelease
brb - bendReleaseBend
\n/ - tremolo bar dip
\n - tremolo bar dive
-/n - tremolo bar Release up
/n\ - tremolo bar inverted dip
/n - tremolo bar return
-\n - tremolo bar Release down
S - shift slide
s - legato slide
/ -  slide into from below or out of upwards
\ -  slide into from above or out of downwards
~ - vibrato
W - wide vibrato
tr - trill
TP - tremolo picking
T - tapping
S - slap
P - pop
< - fade in
^ - brush up
v - brush down
comments
We did not receive enough feedback on this tab! Please rate:
1 2 3 4 5
I want to post or [tab]
guest
You may want to rate the tab now too:
select rating
Please do not post tabs as comments. Select "correction" instead!