Oops, an error
Loading. Please wait.

Howe Sounds Tab

ver2
ver2

Whole song

More versions @911Tabs.com
3,047 views 3 this week
1 commentread comment
1 2 3 4 5
excellent!
x 1
add to favorites launch autoscroll
font size
0
reset
Autoscroll
+/-
esc
set tempo
stop
Contributor
Difficulty
novice
WARNING: You are trying to view
                                    content from Ultimate-Guitar.com
                                    in an unauthorized application,
                                    which is prohibited.

                                    Please use an official Ultimate
                                    Guitar Tabs application for iPhone,
                                    iPad or Android to access legitimate
                                    chords, guitar, bass, and drum tabs
                                    from Ultimate-Guitar.com database.

                                    Type "ultimate guitar tabs" in Apple
                                    App Store's or Android Market's
                                    search to find the application.
hope this is right for anyone who enjoys a bit of said the whale

Standard tuning

listen to the song to get the general rythem, and im pretty sure this is all he plays

E----------------------------------------------------------------|
B----------------------------------------------------------------|
G----------------------------------------------------------------|
D---6--6/4--4------7--7/9--9---6--6/4--4------9--9/6--6----------|
A-0-----------0--0-----------------------------------------------|
E----------------------------0-----------0--0--------------------|

repeat

E-------0--4--2----|
B-2--2-------------|
G------------------|
D----------2--1----|
A-0--0--0----------|
E------------------|

this parts played when they sing the "lets go back to the coast baby west coast to the 
bit
comments
We did not receive enough feedback on this tab! Please rate:
print report bad tab
1 2 3 4 5
1 comment total.
0 reply
hysderekal wrote on June 26 2014, 08:37 pm

just a suggestion, but for the repeating part, this the same thing but on different strings (which i find easier to play)

E-------0----------|
B-2--2-----9---7---|
G------------------|
D------------------|
A-0--0--0--7---6---|
E------------------|

I want to post or [tab]
guest
You may want to rate the tab now too:
select rating
Please do not post tabs as comments. Select "correction" instead!