Oops, an error
Loading. Please wait.

Body Bags Tab

ver1
ver1

Whole song

Interactive

More versions @911Tabs.com
254 views 1 this week
no commentswrite comment
1 2 3 4 5
please rate
Autoscroll
+/-
esc
set tempo
stop
Contributor
Difficulty
advanced
NEW! There's an official Ultimate Guitar app which is ideal
for learning songs when you're away from computer. Get the app
WARNING: You are trying to view
                                    content from Ultimate-Guitar.com
                                    in an unauthorized application,
                                    which is prohibited.

                                    Please use an official Ultimate
                                    Guitar Tabs application for iPhone,
                                    iPad or Android to access legitimate
                                    chords, guitar, bass, and drum tabs
                                    from Ultimate-Guitar.com database.

                                    Type "ultimate guitar tabs" in Apple
                                    App Store's or Android Market's
                                    search to find the application.
-----------------------------------------------------------------------------
                     Body Bags - Saigon Kick (GUITAR)
                       
-----------------------------------------------------------------------------
Tabbed by: Scotto10

Tuning: Standard

=============================================================================

Guitar - 1



             PM PM PM PM PM PM PM PM PM PM    PM PM PM PM PM PM PM PM       
             E  S  S  E  S  E  S  E  E  E     E  S  S  E  S  E  S  E  Q     
E||-------|--------------------------------|-------------------------------|
B||-------|--------------------------------|-------------------------------|
G||-------|--------------------------------|--------------------------3----|
D||-------|--------------------------------|--------------------------3----|
A||-------|--------------------------------|--------------------------1----|
E||-------|--0--2--0--2--0--2--0--2--2--2--|--0--2--0--2--0--2--0--2-------|


  PM PM PM PM PM PM PM PM PM PM    PM PM PM PM PM PM PM PM       
  E  S  S  E  S  E  S  E  E  E     E  S  S  E  S  E  S  E  Q     
--------------------------------|-------------------------------|
--------------------------------|-------------------------------|
--------------------------------|-------------------------------|
--------------------------------|--------------------------3----|
--------------------------------|--------------------------3----|
--0--2--0--2--0--2--0--2--2--2--|--0--2--0--2--0--2--0--2--1----|


  PM PM PM PM PM PM PM PM PM PM    PM PM PM PM PM PM PM PM       
  E  S  S  E  S  E  S  E  E  E     E  S  S  E  S  E  S  E  Q     
--------------------------------|-------------------------------|
--------------------------------|-------------------------------|
--------------------------------|--------------------------3----|
--------------------------------|--------------------------3----|
--------------------------------|--------------------------1----|
--0--2--0--2--0--2--0--2--2--2--|--0--2--0--2--0--2--0--2-------|


  PM PM PM PM PM PM PM PM PM PM    PM PM PM PM PM PM PM PM       
  E  S  S  E  S  E  S  E  E  E     E  S  S  E  S  E  S  E  Q     
--------------------------------|-------------------------------|
--------------------------------|-------------------------------|
--------------------------------|-------------------------------|
--------------------------------|--------------------------3----|
--------------------------------|--------------------------3----|
--0--2--0--2--0--2--0--2--2--2--|--0--2--0--2--0--2--0--2--1----|


  PM PM PM PM PM PM PM PM PM PM    PM PM PM PM PM PM PM PM       
  E  S  S  E  S  E  S  E  E  E     E  S  S  E  S  E  S  E  Q     
--------------------------------|-------------------------------|
--------------------------------|-------------------------------|
--------------------------------|--------------------------3----|
--------------------------------|--------------------------3----|
--------------------------------|--------------------------1----|
--0--2--0--2--0--2--0--2--2--2--|--0--2--0--2--0--2--0--2-------|


  PM PM PM PM PM PM PM PM PM PM    PM PM PM PM PM PM PM PM       
  E  S  S  E  S  E  S  E  E  E     E  S  S  E  S  E  S  E  Q     
--------------------------------|-------------------------------|
--------------------------------|-------------------------------|
--------------------------------|-------------------------------|
--------------------------------|--------------------------3----|
--------------------------------|--------------------------3----|
--0--2--0--2--0--2--0--2--2--2--|--0--2--0--2--0--2--0--2--1----|


  PM PM PM PM PM PM PM PM PM PM    PM PM PM PM PM PM PM PM       
  E  S  S  E  S  E  S  E  E  E     E  S  S  E  S  E  S  E  Q     
--------------------------------|-------------------------------|
--------------------------------|-------------------------------|
--------------------------------|--------------------------3----|
--------------------------------|--------------------------3----|
--------------------------------|--------------------------1----|
--0--2--0--2--0--2--0--2--2--2--|--0--2--0--2--0--2--0--2-------|


  PM PM PM PM PM PM PM PM PM PM    PM PM PM PM PM PM PM PM       
  E  S  S  E  S  E  S  E  E  E     E  S  S  E  S  E  S  E  Q     
--------------------------------|-------------------------------|
--------------------------------|-------------------------------|
--------------------------------|-------------------------------|
--------------------------------|--------------------------3----|
--------------------------------|--------------------------3----|
--0--2--0--2--0--2--0--2--2--2--|--0--2--0--2--0--2--0--2--1----|


                  PM PM                    PM PM                          
  H.           E  S  S     H.           E  S  S     H.           E   E    
------------------------|------------------------|-----------------------|
------------------------|------------------------|-----------------------|
--4------------L--------|------------------------|-----------------------|
--4------------L--------|--4------------L--------|--2------------L-------|
--2------------L--------|--4------------L--------|--2------------L-------|
------------------0--0--|--2------------L--0--0--|--0------------L--12\--|


  PM PM PM PM PM PM PM PM PM PM                    PM PM  
  E  S  S  E  S  E  S  E  E  E     H.           E  S  S   
--------------------------------|------------------------|
--------------------------------|------------------------|
--------------------------------|--4------------L--------|
--------------------------------|--4------------L--------|
--------------------------------|--2------------L--------|
--0--2--0--2--0--2--0--2--2--2--|------------------0--0--|


                  PM PM       PM PM PM PM PM PM PM                        
  H.           E  S  S     E  E  E  E  E  E  E  E     Q    H        Q     
------------------------|--------------------------|---------------------|
------------------------|--------------------------|---------------------|
------------------------|--5--5--5--5--5--5--5--5--|--4------------------|
--4------------L--------|--5--5--5--5--5--5--5--5--|--4------------------|
--4------------L--------|--3--3--3--3--3--3--3--3--|--2------------------|
--2------------L--0--0--|--------------------------|---------------------|


  PM PM PM PM PM PM PM PM PM PM    PM PM PM PM PM PM PM PM       
  E  S  S  E  S  E  S  E  E  E     E  S  S  E  S  E  S  E  Q     
--------------------------------|-------------------------------|
--------------------------------|-------------------------------|
--------------------------------|--------------------------3----|
--------------------------------|--------------------------3----|
--------------------------------|--------------------------1----|
--0--2--0--2--0--2--0--2--2--2--|--0--2--0--2--0--2--0--2-------|


  PM PM PM PM PM PM PM PM PM PM    PM PM PM PM PM PM PM PM       
  E  S  S  E  S  E  S  E  E  E     E  S  S  E  S  E  S  E  Q     
--------------------------------|-------------------------------|
--------------------------------|-------------------------------|
--------------------------------|-------------------------------|
--------------------------------|--------------------------3----|
--------------------------------|--------------------------3----|
--0--2--0--2--0--2--0--2--2--2--|--0--2--0--2--0--2--0--2--1----|


  PM PM PM PM PM PM PM PM PM PM    PM PM PM PM PM PM PM PM       
  E  S  S  E  S  E  S  E  E  E     E  S  S  E  S  E  S  E  Q     
--------------------------------|-------------------------------|
--------------------------------|-------------------------------|
--------------------------------|--------------------------3----|
--------------------------------|--------------------------3----|
--------------------------------|--------------------------1----|
--0--2--0--2--0--2--0--2--2--2--|--0--2--0--2--0--2--0--2-------|


  PM PM PM PM PM PM PM PM PM PM    PM PM PM PM PM PM PM PM       
  E  S  S  E  S  E  S  E  E  E     E  S  S  E  S  E  S  E  Q     
--------------------------------|-------------------------------|
--------------------------------|-------------------------------|
--------------------------------|-------------------------------|
--------------------------------|--------------------------3----|
--------------------------------|--------------------------3----|
--0--2--0--2--0--2--0--2--2--2--|--0--2--0--2--0--2--0--2--1----|


  PM PM PM PM PM PM PM PM PM PM    PM PM PM PM PM PM PM PM       
  E  S  S  E  S  E  S  E  E  E     E  S  S  E  S  E  S  E  Q     
--------------------------------|-------------------------------|
--------------------------------|-------------------------------|
--------------------------------|--------------------------3----|
--------------------------------|--------------------------3----|
--------------------------------|--------------------------1----|
--0--2--0--2--0--2--0--2--2--2--|--0--2--0--2--0--2--0--2-------|


  PM PM PM PM PM PM PM PM PM PM    PM PM PM PM PM PM PM PM       
  E  S  S  E  S  E  S  E  E  E     E  S  S  E  S  E  S  E  Q     
--------------------------------|-------------------------------|
--------------------------------|-------------------------------|
--------------------------------|-------------------------------|
--------------------------------|--------------------------3----|
--------------------------------|--------------------------3----|
--0--2--0--2--0--2--0--2--2--2--|--0--2--0--2--0--2--0--2--1----|


                  PM PM                    PM PM                          
  H.           E  S  S     H.           E  S  S     H.           E   E    
------------------------|------------------------|-----------------------|
------------------------|------------------------|-----------------------|
--4------------L--------|------------------------|-----------------------|
--4------------L--------|--4------------L--------|--2------------L-------|
--2------------L--------|--4------------L--------|--2------------L-------|
------------------0--0--|--2------------L--0--0--|--0------------L--12\--|


  PM PM PM PM PM PM PM PM PM PM                    PM PM  
  E  S  S  E  S  E  S  E  E  E     H.           E  S  S   
--------------------------------|------------------------|
--------------------------------|------------------------|
--------------------------------|--4------------L--------|
--------------------------------|--4------------L--------|
--------------------------------|--2------------L--------|
--0--2--0--2--0--2--0--2--2--2--|------------------0--0--|


                  PM PM       PM PM PM PM PM PM PM                          
  H.           E  S  S     E  E  E  E  E  E  E  E     Q    H         Q      
------------------------|--------------------------|-----------------------|
------------------------|--------------------------|-----------------------|
------------------------|--5--5--5--5--5--5--5--5--|--4--------------------|
--4------------L--------|--5--5--5--5--5--5--5--5--|--4--------------------|
--4------------L--------|--3--3--3--3--3--3--3--3--|--2-------------12\----|
--2------------L--0--0--|--------------------------|----------------12\----|


  E.  E.  Q    E  E  E     E.  E.  H        E     E.  E.  Q    E  E  E   
------------------------|----------------------|------------------------|
------------------------|----------------------|------------------------|
---------------2--------|----------------------|---------------2--------|
--2---3---4----2--4--2--|--2---3---4--------L--|--2---3---4----2--4--2--|
--2---3---4-------4--2--|--2---3---4--------L--|--2---3---4-------4--2--|
------------------------|----------------------|------------------------|


  E.  E.  H        E     E.  E.  Q    E  E  E     E.  E.  H        E   
----------------------|------------------------|----------------------|
----------------------|------------------------|----------------------|
--5---4---2--------L--|---------------2--------|----------------------|
--5---4---2--------L--|--2---3---4----2--4--2--|--2---3---4--------L--|
----------------------|--2---3---4-------4--2--|--2---3---4--------L--|
----------------------|------------------------|----------------------|


                                            PM PM PM PM PM PM PM PM PM PM  
  W                   E  H        Q.        E  S  S  E  S  E  S  E  E  E   
-------------------|---------------------|--------------------------------|
-------------------|---------------------|--------------------------------|
--5----------------|--4------------------|--------------------------------|
--5----------------|--4------------------|--------------------------------|
--3----------------|--2------------------|--------------------------------|
-------------------|---------------------|--0--2--0--2--0--2--0--2--2--2--|


  PM PM PM PM PM PM PM PM         PM PM PM PM PM PM PM PM PM PM  
  E  S  S  E  S  E  S  E  Q       E  S  S  E  S  E  S  E  E  E   
-------------------------------|--------------------------------|
-------------------------------|--------------------------------|
--------------------------3----|--------------------------------|
--------------------------3----|--------------------------------|
--------------------------1----|--------------------------------|
--0--2--0--2--0--2--0--2-------|--0--2--0--2--0--2--0--2--2--2--|


  PM PM PM PM PM PM PM PM         PM PM PM PM PM PM PM PM PM PM  
  E  S  S  E  S  E  S  E  Q       E  S  S  E  S  E  S  E  E  E   
-------------------------------|--------------------------------|
-------------------------------|--------------------------------|
-------------------------------|--------------------------------|
--------------------------3----|--------------------------------|
--------------------------3----|--------------------------------|
--0--2--0--2--0--2--0--2--1----|--0--2--0--2--0--2--0--2--2--2--|


  PM PM PM PM PM PM PM PM         PM PM PM PM PM PM PM PM PM PM  
  E  S  S  E  S  E  S  E  Q       E  S  S  E  S  E  S  E  E  E   
-------------------------------|--------------------------------|
-------------------------------|--------------------------------|
--------------------------3----|--------------------------------|
--------------------------3----|--------------------------------|
--------------------------1----|--------------------------------|
--0--2--0--2--0--2--0--2-------|--0--2--0--2--0--2--0--2--2--2--|


  PM PM PM PM PM PM PM PM                                                     
  E  S  S  E  S  E  S  E  Q       Q    Q    Q    Q       Q    Q    Q    Q     
-------------------------------|----------------------|----------------------|
-------------------------------|----------------------|----------------------|
-------------------------------|--4----4----4----4----|----------------------|
--------------------------3----|--4----4----4----4----|--4----4----4----4----|
--------------------------3----|--2----2----2----2----|--4----4----4----4----|
--0--2--0--2--0--2--0--2--1----|----------------------|--2----2----2----2----|


                         PM PM PM PM PM PM PM PM PM PM                      
  Q    Q    Q    Q       E  S  S  E  S  E  S  E  E  E     W                 
----------------------|--------------------------------|-------------------|
----------------------|--------------------------------|-------------------|
----------------------|--------------------------------|--4----------------|
--2----2----2----2----|--------------------------------|--4----------------|
--2----2----2----2----|--------------------------------|--2----------------|
--0----0----0----0----|--0--2--0--2--0--2--0--2--2--2--|-------------------|


                         PM PM PM PM PM PM PM                          
  W                   E  E  E  E  E  E  E  E     Q    H         Q      
-------------------|--------------------------|-----------------------|
-------------------|--------------------------|-----------------------|
-------------------|--5--5--5--5--5--5--5--5--|--4--------------------|
--4----------------|--5--5--5--5--5--5--5--5--|--4--------------------|
--4----------------|--3--3--3--3--3--3--3--3--|--2-------------12\----|
--2----------------|--------------------------|----------------12\----|


  PM PM PM PM PM PM PM PM PM PM    PM PM PM PM PM PM PM PM       
  E  S  S  E  S  E  S  E  E  E     E  S  S  E  S  E  S  E  Q     
--------------------------------|-------------------------------|
--------------------------------|-------------------------------|
--------------------------------|--------------------------3----|
--------------------------------|--------------------------3----|
--------------------------------|--------------------------1----|
--0--2--0--2--0--2--0--2--2--2--|--0--2--0--2--0--2--0--2-------|


  PM PM PM PM PM PM PM PM PM PM    PM PM PM PM PM PM PM PM       
  E  S  S  E  S  E  S  E  E  E     E  S  S  E  S  E  S  E  Q     
--------------------------------|-------------------------------|
--------------------------------|-------------------------------|
--------------------------------|-------------------------------|
--------------------------------|--------------------------3----|
--------------------------------|--------------------------3----|
--0--2--0--2--0--2--0--2--2--2--|--0--2--0--2--0--2--0--2--1----|


  PM PM PM PM PM PM PM PM PM PM    PM PM PM PM PM PM PM PM       
  E  S  S  E  S  E  S  E  E  E     E  S  S  E  S  E  S  E  Q     
--------------------------------|-------------------------------|
--------------------------------|-------------------------------|
--------------------------------|--------------------------3----|
--------------------------------|--------------------------3----|
--------------------------------|--------------------------1----|
--0--2--0--2--0--2--0--2--2--2--|--0--2--0--2--0--2--0--2-------|


  PM PM PM PM PM PM PM PM PM PM    PM PM PM PM PM PM PM PM       
  E  S  S  E  S  E  S  E  E  E     E  S  S  E  S  E  S  E  Q     
--------------------------------|-------------------------------|
--------------------------------|-------------------------------|
--------------------------------|-------------------------------|
--------------------------------|--------------------------3----|
--------------------------------|--------------------------3----|
--0--2--0--2--0--2--0--2--2--2--|--0--2--0--2--0--2--0--2--1----|


  PM PM PM PM PM PM PM PM PM PM    PM PM PM PM PM PM PM PM       
  E  S  S  E  S  E  S  E  E  E     E  S  S  E  S  E  S  E  Q     
--------------------------------|-------------------------------|
--------------------------------|-------------------------------|
--------------------------------|--------------------------3----|
--------------------------------|--------------------------3----|
--------------------------------|--------------------------1----|
--0--2--0--2--0--2--0--2--2--2--|--0--2--0--2--0--2--0--2-------|


  PM PM PM PM PM PM PM PM PM PM    PM PM PM PM PM PM PM PM       
  E  S  S  E  S  E  S  E  E  E     E  S  S  E  S  E  S  E  Q     
--------------------------------|-------------------------------|
--------------------------------|-------------------------------|
--------------------------------|-------------------------------|
--------------------------------|--------------------------3----|
--------------------------------|--------------------------3----|
--0--2--0--2--0--2--0--2--2--2--|--0--2--0--2--0--2--0--2--1----|


  PM PM PM PM PM PM PM PM PM PM    PM PM PM PM PM PM PM PM       
  E  S  S  E  S  E  S  E  E  E     E  S  S  E  S  E  S  E  Q     
--------------------------------|-------------------------------|
--------------------------------|-------------------------------|
--------------------------------|--------------------------3----|
--------------------------------|--------------------------3----|
--------------------------------|--------------------------1----|
--0--2--0--2--0--2--0--2--2--2--|--0--2--0--2--0--2--0--2-------|


  PM PM PM PM PM PM PM PM PM PM    PM PM PM PM PM PM PM PM       
  E  S  S  E  S  E  S  E  E  E     E  S  S  E  S  E  S  E  Q     
--------------------------------|-------------------------------|
--------------------------------|-------------------------------|
--------------------------------|-------------------------------|
--------------------------------|--------------------------3----|
--------------------------------|--------------------------3----|
--0--2--0--2--0--2--0--2--2--2--|--0--2--0--2--0--2--0--2--1----|


  PM PM PM PM PM PM PM PM PM PM    PM PM PM PM PM PM PM PM       
  E  S  S  E  S  E  S  E  E  E     E  S  S  E  S  E  S  E  Q     
--------------------------------|-------------------------------|
--------------------------------|-------------------------------|
--------------------------------|--------------------------3----|
--------------------------------|--------------------------3----|
--------------------------------|--------------------------1----|
--0--2--0--2--0--2--0--2--2--2--|--0--2--0--2--0--2--0--2-------|


  PM PM PM PM PM PM PM PM PM PM    PM PM PM PM PM PM PM PM       
  E  S  S  E  S  E  S  E  E  E     E  S  S  E  S  E  S  E  Q     
--------------------------------|-------------------------------|
--------------------------------|-------------------------------|
--------------------------------|-------------------------------|
--------------------------------|--------------------------3----|
--------------------------------|--------------------------3----|
--0--2--0--2--0--2--0--2--2--2--|--0--2--0--2--0--2--0--2--1----|


                  PM PM                    PM PM                       
  H.           E  S  S     H.           E  S  S     H.           Q     
------------------------|------------------------|--------------------|
------------------------|------------------------|--------------------|
--4------------L--------|------------------------|--------------------|
--4------------L--------|--4------------L--------|--2------------L----|
--2------------L--------|--4------------L--------|--2------------L----|
------------------0--0--|--2------------L--0--0--|--0------------L----|


  PM PM PM PM PM PM PM PM PM PM                    PM PM  
  E  S  S  E  S  E  S  E  E  E     H.           E  S  S   
--------------------------------|------------------------|
--------------------------------|------------------------|
--------------------------------|--4------------L--------|
--------------------------------|--4------------L--------|
--------------------------------|--2------------L--------|
--0--2--0--2--0--2--0--2--2--2--|------------------0--0--|


                  PM PM       PM PM PM PM PM PM PM                        
  H.           E  S  S     E  E  E  E  E  E  E  E     Q    H        Q     
------------------------|--------------------------|---------------------|
------------------------|--------------------------|---------------------|
------------------------|--5--5--5--5--5--5--5--5--|--4------------------|
--4------------L--x--x--|--5--5--5--5--5--5--5--5--|--4------------------|
--4------------L--x--x--|--3--3--3--3--3--3--3--3--|--2------------------|
--2------------L--0--0--|--------------------------|---------------------|


  PM PM PM PM PM PM PM PM PM PM    PM PM PM PM PM PM PM PM                
  E  S  S  E  S  E  S  E  E  E     E  S  S  E  S  E  S  E  E  E     Q     
--------------------------------|--------------------------------|-------|
--------------------------------|--------------------------------|-------|
--------------------------------|--------------------------3-----|-------|
--------------------------------|--------------------------3-----|-------|
--------------------------------|--------------------------1-----|-------|
--0--2--0--2--0--2--0--2--2--2--|--0--2--0--2--0--2--0--2--------|-------|


  PM PM PM PM PM PM PM PM PM PM    PM PM PM PM PM PM PM PM                
  E  S  S  E  S  E  S  E  E  E     E  S  S  E  S  E  S  E  E  E     Q     
--------------------------------|--------------------------------|-------|
--------------------------------|--------------------------------|-------|
--------------------------------|--------------------------------|-------|
--------------------------------|--------------------------3-----|-------|
--------------------------------|--------------------------3-----|-------|
--0--2--0--2--0--2--0--2--2--2--|--0--2--0--2--0--2--0--2--1-----|-------|


  PM PM PM PM PM PM PM PM PM PM    PM PM PM PM PM PM PM PM                
  E  S  S  E  S  E  S  E  E  E     E  S  S  E  S  E  S  E  E  E     Q     
--------------------------------|--------------------------------|-------|
--------------------------------|--------------------------------|-------|
--------------------------------|--------------------------3-----|-------|
--------------------------------|--------------------------3-----|-------|
--------------------------------|--------------------------1-----|-------|
--0--2--0--2--0--2--0--2--2--2--|--0--2--0--2--0--2--0--2--------|-------|


  PM PM PM PM PM PM PM PM PM PM    PM PM PM PM PM PM PM PM       
  E  S  S  E  S  E  S  E  E  E     E  S  S  E  S  E  S  E  Q     
--------------------------------|-------------------------------|
--------------------------------|-------------------------------|
--------------------------------|-------------------------------|
--------------------------------|--------------------------3----|
--------------------------------|--------------------------3----|
--0--2--0--2--0--2--0--2--2--2--|--0--2--0--2--0--2--0--2--1----|


  E  S S E  S E  S E  E  E     E  S S E  S E  S E  Q     
----------------------------|---------------------------|
----------------------------|---------------------------|
----------------------------|----------------------3----|
----------------------------|----------------------3----|
-----4---4----4----4--4--4--|-----4---4----4----4--1----|
--0--2-0-2--0-2--0-2--2--2--|--0--2-0-2--0-2--0-2-------|


  E  S S E  S E  S E  E  E     E  S S E  S E  S E  Q     
----------------------------|---------------------------|
----------------------------|---------------------------|
----------------------------|---------------------------|
----------------------------|----------------------3----|
-----4---4----4----4--4--4--|-----4---4----4----4--3----|
--0--2-0-2--0-2--0-2--2--2--|--0--2-0-2--0-2--0-2--1----|


  E  S S E  S E  S E  E  E     E  S S E  S E  S E  Q     
----------------------------|---------------------------|
----------------------------|---------------------------|
----------------------------|----------------------3----|
----------------------------|----------------------3----|
-----4---4----4----4--4--4--|-----4---4----4----4--1----|
--0--2-0-2--0-2--0-2--2--2--|--0--2-0-2--0-2--0-2-------|


  E  S S E  S E  S E  E  E     E  S S E  S E  S E  Q      
----------------------------|---------------------------||
----------------------------|---------------------------||
----------------------------|---------------------------||
----------------------------|----------------------3----||
-----4---4----4----4--4--4--|-----4---4----4----4--3----||
--0--2-0-2--0-2--0-2--2--2--|--0--2-0-2--0-2--0-2--1----||




================================================================
================================================================

Guitar - 2



                           PM   PM PM PM   PM PM   PM PM   PM   PM    
     H.           Q        S  S S  S  S  S S  S  S S  S  S S  S S  S  
E||---------------------|--------------------------------------------|
B||---------------------|--------------------------------------------|
G||---------------------|--------------------------------------------|
D||---------------------|--------------------------------------------|
A||---------------7\----|--------------------------------------------|
E||---------------7\----|--0----2--0--2----0--2----0--2----2----2----|


  PM   PM PM PM   PM PM   PM PM         
  S  S S  S  S  S S  S  S S  S  S Q     
---------------------------------------|
---------------------------------------|
----------------------------------3----|
----------------------------------3----|
----------------------------------1----|
--0----2--0--2----0--2----0--2---------|


  PM   PM PM PM   PM PM   PM PM   PM   PM    
  S  S S  S  S  S S  S  S S  S  S S  S S  S  
--------------------------------------------|
--------------------------------------------|
--------------------------------------------|
--------------------------------------------|
--------------------------------------------|
--0----2--0--2----0--2----0--2----2----2----|


  PM   PM PM PM   PM PM   PM PM           PM PM PM PM PM PM PM PM PM PM  
  S  S S  S  S  S S  S  S S  S  S Q       E  S  S  E  S  E  S  E  E  E   
---------------------------------------|--------------------------------|
---------------------------------------|--------------------------------|
---------------------------------------|--------------------------------|
----------------------------------3----|--------------------------------|
----------------------------------3----|--------------------------------|
--0----2--0--2----0--2----0--2----1----|--0--2--0--2--0--2--0--2--2--2--|


  PM PM PM PM PM PM PM PM         PM PM PM PM PM PM PM PM PM PM  
  E  S  S  E  S  E  S  E  Q       E  S  S  E  S  E  S  E  E  E   
-------------------------------|--------------------------------|
-------------------------------|--------------------------------|
--------------------------3----|--------------------------------|
--------------------------3----|--------------------------------|
--------------------------1----|--------------------------------|
--0--2--0--2--0--2--0--2-------|--0--2--0--2--0--2--0--2--2--2--|


  PM PM PM PM PM PM PM PM         PM PM PM PM PM PM PM PM PM PM  
  E  S  S  E  S  E  S  E  Q       E  S  S  E  S  E  S  E  E  E   
-------------------------------|--------------------------------|
-------------------------------|--------------------------------|
-------------------------------|--------------------------------|
--------------------------3----|--------------------------------|
--------------------------3----|--------------------------------|
--0--2--0--2--0--2--0--2--1----|--0--2--0--2--0--2--0--2--2--2--|


  PM PM PM PM PM PM PM PM         PM PM PM PM PM PM PM PM PM PM  
  E  S  S  E  S  E  S  E  Q       E  S  S  E  S  E  S  E  E  E   
-------------------------------|--------------------------------|
-------------------------------|--------------------------------|
--------------------------3----|--------------------------------|
--------------------------3----|--------------------------------|
--------------------------1----|--------------------------------|
--0--2--0--2--0--2--0--2-------|--0--2--0--2--0--2--0--2--2--2--|


  PM PM PM PM PM PM PM PM         PM PM PM PM PM PM PM PM PM PM  
  E  S  S  E  S  E  S  E  Q       E  S  S  E  S  E  S  E  E  E   
-------------------------------|--------------------------------|
-------------------------------|--------------------------------|
-------------------------------|--------------------------------|
--------------------------3----|--------------------------------|
--------------------------3----|--------------------------------|
--0--2--0--2--0--2--0--2--1----|--0--2--0--2--0--2--0--2--2--2--|


  PM PM PM PM PM PM PM PM         PM PM PM PM PM PM PM PM PM PM  
  E  S  S  E  S  E  S  E  Q       E  S  S  E  S  E  S  E  E  E   
-------------------------------|--------------------------------|
-------------------------------|--------------------------------|
--------------------------3----|--------------------------------|
--------------------------3----|--------------------------------|
--------------------------1----|--------------------------------|
--0--2--0--2--0--2--0--2-------|--0--2--0--2--0--2--0--2--2--2--|


  PM PM PM PM PM PM PM PM                         PM PM  
  E  S  S  E  S  E  S  E  Q       H.           E  S  S   
-------------------------------|------------------------|
-------------------------------|------------------------|
-------------------------------|--4------------L--------|
--------------------------3----|--4------------L--------|
--------------------------3----|--2------------L--------|
--0--2--0--2--0--2--0--2--1----|------------------0--0--|


                  PM PM                          
  H.           E  S  S     H.           E   E    
------------------------|-----------------------|
------------------------|-----------------------|
------------------------|-----------------------|
--4------------L--------|--2------------L-------|
--4------------L--------|--2------------L-------|
--2------------L--0--0--|--0------------L--12\--|


  PM PM PM PM PM PM PM PM PM PM                    PM PM  
  E  S  S  E  S  E  S  E  E  E     H.           E  S  S   
--------------------------------|------------------------|
--------------------------------|------------------------|
--------------------------------|--4------------L--------|
--------------------------------|--4------------L--------|
--------------------------------|--2------------L--------|
--0--2--0--2--0--2--0--2--2--2--|------------------0--0--|


                  PM PM       PM PM PM PM PM PM PM                        
  H.           E  S  S     E  E  E  E  E  E  E  E     Q    H        Q     
------------------------|--------------------------|---------------------|
------------------------|--------------------------|---------------------|
------------------------|--5--5--5--5--5--5--5--5--|--4------------------|
--4------------L--------|--5--5--5--5--5--5--5--5--|--4------------------|
--4------------L--------|--3--3--3--3--3--3--3--3--|--2------------------|
--2------------L--0--0--|--------------------------|---------------------|


  PM PM PM PM PM PM PM PM PM PM    PM PM PM PM PM PM PM PM       
  E  S  S  E  S  E  S  E  E  E     E  S  S  E  S  E  S  E  Q     
--------------------------------|-------------------------------|
--------------------------------|-------------------------------|
--------------------------------|--------------------------3----|
--------------------------------|--------------------------3----|
--------------------------------|--------------------------1----|
--0--2--0--2--0--2--0--2--2--2--|--0--2--0--2--0--2--0--2-------|


  PM PM PM PM PM PM PM PM PM PM    PM PM PM PM PM PM PM PM       
  E  S  S  E  S  E  S  E  E  E     E  S  S  E  S  E  S  E  Q     
--------------------------------|-------------------------------|
--------------------------------|-------------------------------|
--------------------------------|-------------------------------|
--------------------------------|--------------------------3----|
--------------------------------|--------------------------3----|
--0--2--0--2--0--2--0--2--2--2--|--0--2--0--2--0--2--0--2--1----|


  PM PM PM PM PM PM PM PM PM PM    PM PM PM PM PM PM PM PM       
  E  S  S  E  S  E  S  E  E  E     E  S  S  E  S  E  S  E  Q     
--------------------------------|-------------------------------|
--------------------------------|-------------------------------|
--------------------------------|--------------------------3----|
--------------------------------|--------------------------3----|
--------------------------------|--------------------------1----|
--0--2--0--2--0--2--0--2--2--2--|--0--2--0--2--0--2--0--2-------|


  PM PM PM PM PM PM PM PM PM PM    PM PM PM PM PM PM PM PM       
  E  S  S  E  S  E  S  E  E  E     E  S  S  E  S  E  S  E  Q     
--------------------------------|-------------------------------|
--------------------------------|-------------------------------|
--------------------------------|-------------------------------|
--------------------------------|--------------------------3----|
--------------------------------|--------------------------3----|
--0--2--0--2--0--2--0--2--2--2--|--0--2--0--2--0--2--0--2--1----|


  PM PM PM PM PM PM PM PM PM PM    PM PM PM PM PM PM PM PM       
  E  S  S  E  S  E  S  E  E  E     E  S  S  E  S  E  S  E  Q     
--------------------------------|-------------------------------|
--------------------------------|-------------------------------|
--------------------------------|--------------------------3----|
--------------------------------|--------------------------3----|
--------------------------------|--------------------------1----|
--0--2--0--2--0--2--0--2--2--2--|--0--2--0--2--0--2--0--2-------|


  PM PM PM PM PM PM PM PM PM PM    PM PM PM PM PM PM PM PM       
  E  S  S  E  S  E  S  E  E  E     E  S  S  E  S  E  S  E  Q     
--------------------------------|-------------------------------|
--------------------------------|-------------------------------|
--------------------------------|-------------------------------|
--------------------------------|--------------------------3----|
--------------------------------|--------------------------3----|
--0--2--0--2--0--2--0--2--2--2--|--0--2--0--2--0--2--0--2--1----|


                  PM PM                    PM PM                          
  H.           E  S  S     H.           E  S  S     H.           E   E    
------------------------|------------------------|-----------------------|
------------------------|------------------------|-----------------------|
--4------------L--------|------------------------|-----------------------|
--4------------L--------|--4------------L--------|--2------------L-------|
--2------------L--------|--4------------L--------|--2------------L-------|
------------------0--0--|--2------------L--0--0--|--0------------L--12\--|


  PM PM PM PM PM PM PM PM PM PM                    PM PM  
  E  S  S  E  S  E  S  E  E  E     H.           E  S  S   
--------------------------------|------------------------|
--------------------------------|------------------------|
--------------------------------|--4------------L--------|
--------------------------------|--4------------L--------|
--------------------------------|--2------------L--------|
--0--2--0--2--0--2--0--2--2--2--|------------------0--0--|


                  PM PM       PM PM PM PM PM PM PM                          
  H.           E  S  S     E  E  E  E  E  E  E  E     Q    H         Q      
------------------------|--------------------------|-----------------------|
------------------------|--------------------------|-----------------------|
------------------------|--5--5--5--5--5--5--5--5--|--4--------------------|
--4------------L--------|--5--5--5--5--5--5--5--5--|--4--------------------|
--4------------L--------|--3--3--3--3--3--3--3--3--|--2-------------12\----|
--2------------L--0--0--|--------------------------|----------------12\----|


  E.  E.  Q    E  E  E     E.  E.  H        E     E.  E.  Q    E  E  E   
------------------------|----------------------|------------------------|
------------------------|----------------------|------------------------|
---------------2--------|----------------------|---------------2--------|
--2---3---4----2--4--2--|--2---3---4--------L--|--2---3---4----2--4--2--|
--2---3---4-------4--2--|--2---3---4--------L--|--2---3---4-------4--2--|
------------------------|----------------------|------------------------|


  E.  E.  H        E     E.  E.  Q    E  E  E     E.  E.  H        E   
----------------------|------------------------|----------------------|
----------------------|------------------------|----------------------|
--5---4---2--------L--|---------------2--------|----------------------|
--5---4---2--------L--|--2---3---4----2--4--2--|--2---3---4--------L--|
----------------------|--2---3---4-------4--2--|--2---3---4--------L--|
----------------------|------------------------|----------------------|


                       |---3---|       |---3---|       |---3---|               
  W                    S   S   S  S S  S   S   S  S S  S   S   S  S S  E   E   
-------------------|--19p-17p-14------19p-17p-14------19p-17p-14------17--19--|
-------------------|-------------17--------------17--------------17-----------|
--5----------------|----------------------------------------------------------|
--5----------------|----------------------------------------------------------|
--3----------------|----------------------------------------------------------|
-------------------|----------------------------------------------------------|


   W                     E   E    E   H          E   
--19b----------------|--14-------14-----------------|
---------------------|------17b------17b---------L--|
---------------------|------------------------------|
---------------------|------------------------------|
---------------------|------------------------------|
---------------------|------------------------------|


   E   S. E   S. E   S  E   E   E      E   E   S  E   E    Q     E.    
--21-----19-----17--17-16--14--16--|--17--16--14-16-------------------|
------17-----16--------------------|-----------------17b--17b---------|
-----------------------------------|-----------------------------2s---|
-----------------------------------|----------------------------------|
-----------------------------------|----------------------------------|
-----------------------------------|----------------------------------|


         |---3--|        |---3--|        |---3--|        |---3--|  
   S  S  S  S   S  S  S  S  S   S  S  S  S  S   S  S  S  S  S   S  
------------------------------------------------------------------|
------------------------------------------------------------------|
--18-17-16--------18-17-16--------18-17-16--------18-17-16--------|
-----------19p-16----------19p-16----------19p-16----------19p-16-|
------------------------------------------------------------------|
------------------------------------------------------------------|


         |---3--|        |---3--|                     
   S  S  S  S   S  S  S  S  S   S  E    Q       S  S  
-----------------------------------------------------|
----------------------------------17b--17b~----------|
--18-17-16--------18-17-16---------------------18-16-|
-----------19p-16----------19p-16--------------------|
-----------------------------------------------------|
-----------------------------------------------------|


                               PM PM PM PM PM PM PM 
   S  S  S  S  S   S  S  S  S  S  S  S  S  S  S  S  
---------------------------------------------------|
---------------------------------------------------|
--18-17-16----17b-16-------------------------------|
-----------19--------19-16-19-16-19-16-19-16-------|
---------------------------------------------19-16-|
---------------------------------------------------|


   PM PM PM PM                          
   S  S  S  S  S  S  E     E   Q.       
---------------------------------------|
---------------------------------------|
---------------------------------------|
---------------------------------------|
--19-16-14----------14br---------------|
-----------17-14-17-------17--14~------|


               |--3--| |---3---| |---3---|  |--3--|   |--3--| |---3--|  
   E.     T T  S  S  S S   S   S S   S   S  S  S  S   S  S  S S  S   S  
---------------------------------9h-12p-10p-9----12p-10p-9----9--------|
------------9-10p-9----9h-10h-12--------------12-----------12---12p-10-|
--11br----L---------11-------------------------------------------------|
-----------------------------------------------------------------------|
-----------------------------------------------------------------------|
-----------------------------------------------------------------------|


  |---3--|  |--3-|  |--3--|   |--3--|   |--3-|  |---3--|           
  S   S  S  S  S S  S  S  S   S S   S   S S  S  S  S   S  E   E    
------------------------------------------------------------------|
--9h-10p-9-------9------------------------------------------------|
-----------11p-9---11p-9------------------9-----------------------|
-------------------------12p-11-9h-11h-12---11p-9-----------------|
--------------------------------------------------12p-11p-9~--L\--|
------------------------------------------------------------------|


    SH                    PM PMPM  PM PM PMPM  PM PM                    
                          |--3-|   |--3--|                              
    W                     S  S S   S  S  S S   S  S S  S S  E   E   E   
----------------------|------------------------------------------------|
----------------------|------------------------------------------------|
----------------------|------------------------------------------------|
--<>9b----------------|-----------------------------9-11-9-------------|
----------------------|--12-11-9--11-12-11-9--11-12--------12--11--12--|
----------------------|------------------------------------------------|


   PM PMPM  PMPM  PM PM PMPM  PMPM  PM PM PMPM  PMPM  PM PM PMPM  PMPM  PM 
   |--3-|   |--3--|  |--3-|   |--3--|  |--3-|   |--3--|  |--3-|   |--3--|  
   S  S S   S S   S  S  S S   S S   S  S  S S   S S   S  S  S S   S S   S  
--------------------------------------------------------------------------|
--------------------------------------------------------------------------|
--------------------------------------------------------------------------|
--------------------------------------------------------------------------|
--12-11-9-----9--11-12-11-9-----9--11-12-11-9-----9--11-12-11-9-----9--11-|
-----------12----------------12----------------12----------------12-------|


   |--3--|  |--3--|  |--3--|  |--3--|  |--3--|  |--3--|  |--3--|  |--3--|  
   S  S  S  S  S  S  S  S  S  S  S  S  S  S  S  S  S  S  S  S  S  S  S  S  
--------------------------------------------------------------------12-14-|
--------------------------12-------------------------------12-13-15-------|
--------------11-12-13-14----14-13-11-14-13-11----11-12-14----------------|
--12-13-14-12----------------------------------14-------------------------|
--------------------------------------------------------------------------|
--------------------------------------------------------------------------|


   S  S  S  S  S  S  S  S  E   E   E   E      Q     H        Q             
--15-17-15-14----------14-16--17--19--21--|--22b------------------|-------|
--------------17-15-17--------------------|-----------------------|-------|
------------------------------------------|-----------------------|-------|
------------------------------------------|-----------------------|-------|
------------------------------------------|-----------------------|-------|
------------------------------------------|-----------------------|-------|


-------|-------|-------|-------|-------|-------|-------|
-------|-------|-------|-------|-------|-------|-------|
-------|-------|-------|-------|-------|-------|-------|
-------|-------|-------|-------|-------|-------|-------|
-------|-------|-------|-------|-------|-------|-------|
-------|-------|-------|-------|-------|-------|-------|


  PM PM PM PM PM PM PM PM PM PM    PM PM PM PM PM PM PM PM       
  E  S  S  E  S  E  S  E  E  E     E  S  S  E  S  E  S  E  Q     
--------------------------------|-------------------------------|
--------------------------------|-------------------------------|
--------------------------------|--------------------------3----|
--------------------------------|--------------------------3----|
--------------------------------|--------------------------1----|
--0--2--0--2--0--2--0--2--2--2--|--0--2--0--2--0--2--0--2-------|


  PM PM PM PM PM PM PM PM PM PM    PM PM PM PM PM PM PM PM       
  E  S  S  E  S  E  S  E  E  E     E  S  S  E  S  E  S  E  Q     
--------------------------------|-------------------------------|
--------------------------------|-------------------------------|
--------------------------------|-------------------------------|
--------------------------------|--------------------------3----|
--------------------------------|--------------------------3----|
--0--2--0--2--0--2--0--2--2--2--|--0--2--0--2--0--2--0--2--1----|


  PM PM PM PM PM PM PM PM PM PM    PM PM PM PM PM PM PM PM       
  E  S  S  E  S  E  S  E  E  E     E  S  S  E  S  E  S  E  Q     
--------------------------------|-------------------------------|
--------------------------------|-------------------------------|
--------------------------------|--------------------------3----|
--------------------------------|--------------------------3----|
--------------------------------|--------------------------1----|
--0--2--0--2--0--2--0--2--2--2--|--0--2--0--2--0--2--0--2-------|


  PM PM PM PM PM PM PM PM PM PM    PM PM PM PM PM PM PM PM       
  E  S  S  E  S  E  S  E  E  E     E  S  S  E  S  E  S  E  Q     
--------------------------------|-------------------------------|
--------------------------------|-------------------------------|
--------------------------------|-------------------------------|
--------------------------------|--------------------------3----|
--------------------------------|--------------------------3----|
--0--2--0--2--0--2--0--2--2--2--|--0--2--0--2--0--2--0--2--1----|


  PM PM PM PM PM PM PM PM PM PM    PM PM PM PM PM PM PM PM       
  E  S  S  E  S  E  S  E  E  E     E  S  S  E  S  E  S  E  Q     
--------------------------------|-------------------------------|
--------------------------------|-------------------------------|
--------------------------------|--------------------------3----|
--------------------------------|--------------------------3----|
--------------------------------|--------------------------1----|
--0--2--0--2--0--2--0--2--2--2--|--0--2--0--2--0--2--0--2-------|


  PM PM PM PM PM PM PM PM PM PM    PM PM PM PM PM PM PM PM       
  E  S  S  E  S  E  S  E  E  E     E  S  S  E  S  E  S  E  Q     
--------------------------------|-------------------------------|
--------------------------------|-------------------------------|
--------------------------------|-------------------------------|
--------------------------------|--------------------------3----|
--------------------------------|--------------------------3----|
--0--2--0--2--0--2--0--2--2--2--|--0--2--0--2--0--2--0--2--1----|


                  PM PM                    PM PM                       
  H.           E  S  S     H.           E  S  S     H.           Q     
------------------------|------------------------|--------------------|
------------------------|------------------------|--------------------|
--4------------L--------|------------------------|--------------------|
--4------------L--------|--4------------L--------|--2------------L----|
--2------------L--------|--4------------L--------|--2------------L----|
------------------0--0--|--2------------L--0--0--|--0------------L----|


  PM PM PM PM PM PM PM PM PM PM                    PM PM  
  E  S  S  E  S  E  S  E  E  E     H.           E  S  S   
--------------------------------|------------------------|
--------------------------------|------------------------|
--------------------------------|--4------------L--------|
--------------------------------|--4------------L--------|
--------------------------------|--2------------L--------|
--0--2--0--2--0--2--0--2--2--2--|------------------0--0--|


                  PM PM       PM PM PM PM PM PM PM                        
  H.           E  S  S     E  E  E  E  E  E  E  E     Q    H        Q     
------------------------|--------------------------|---------------------|
------------------------|--------------------------|---------------------|
------------------------|--5--5--5--5--5--5--5--5--|--4------------------|
--4------------L--x--x--|--5--5--5--5--5--5--5--5--|--4------------------|
--4------------L--x--x--|--3--3--3--3--3--3--3--3--|--2------------------|
--2------------L--0--0--|--------------------------|---------------------|


  PM PM PM PM PM PM PM PM PM PM    PM PM PM PM PM PM PM PM                
  E  S  S  E  S  E  S  E  E  E     E  S  S  E  S  E  S  E  E  E     Q     
--------------------------------|--------------------------------|-------|
--------------------------------|--------------------------------|-------|
--------------------------------|--------------------------3-----|-------|
--------------------------------|--------------------------3-----|-------|
--------------------------------|--------------------------1-----|-------|
--0--2--0--2--0--2--0--2--2--2--|--0--2--0--2--0--2--0--2--------|-------|


  PM PM PM PM PM PM PM PM PM PM    PM PM PM PM PM PM PM PM                
  E  S  S  E  S  E  S  E  E  E     E  S  S  E  S  E  S  E  E  E     Q     
--------------------------------|--------------------------------|-------|
--------------------------------|--------------------------------|-------|
--------------------------------|--------------------------------|-------|
--------------------------------|--------------------------3-----|-------|
--------------------------------|--------------------------3-----|-------|
--0--2--0--2--0--2--0--2--2--2--|--0--2--0--2--0--2--0--2--1-----|-------|


  PM PM PM PM PM PM PM PM PM PM    PM PM PM PM PM PM PM PM                
  E  S  S  E  S  E  S  E  E  E     E  S  S  E  S  E  S  E  E  E     Q     
--------------------------------|--------------------------------|-------|
--------------------------------|--------------------------------|-------|
--------------------------------|--------------------------3-----|-------|
--------------------------------|--------------------------3-----|-------|
--------------------------------|--------------------------1-----|-------|
--0--2--0--2--0--2--0--2--2--2--|--0--2--0--2--0--2--0--2--------|-------|


  PM PM PM PM PM PM PM PM PM PM    PM PM PM PM PM PM PM PM       
  E  S  S  E  S  E  S  E  E  E     E  S  S  E  S  E  S  E  Q     
--------------------------------|-------------------------------|
--------------------------------|-------------------------------|
--------------------------------|-------------------------------|
--------------------------------|--------------------------3----|
--------------------------------|--------------------------3----|
--0--2--0--2--0--2--0--2--2--2--|--0--2--0--2--0--2--0--2--1----|


  E  S S E  S E  S E  E  E     E  S S E  S E  S E  Q     
----------------------------|---------------------------|
----------------------------|---------------------------|
----------------------------|----------------------3----|
----------------------------|----------------------3----|
-----4---4----4----4--4--4--|-----4---4----4----4--1----|
--0--2-0-2--0-2--0-2--2--2--|--0--2-0-2--0-2--0-2-------|


  E  S S E  S E  S E  E  E     E  S S E  S E  S E  Q     
----------------------------|---------------------------|
----------------------------|---------------------------|
----------------------------|---------------------------|
----------------------------|----------------------3----|
-----4---4----4----4--4--4--|-----4---4----4----4--3----|
--0--2-0-2--0-2--0-2--2--2--|--0--2-0-2--0-2--0-2--1----|


  E  S S E  S E  S E  E  E     E  S S E  S E  S E  Q     
----------------------------|---------------------------|
----------------------------|---------------------------|
----------------------------|----------------------3----|
----------------------------|----------------------3----|
-----4---4----4----4--4--4--|-----4---4----4----4--1----|
--0--2-0-2--0-2--0-2--2--2--|--0--2-0-2--0-2--0-2-------|


  E  S S E  S E  S E  E  E     E  S S E  S E  S E  Q      
----------------------------|---------------------------||
----------------------------|---------------------------||
----------------------------|---------------------------||
----------------------------|----------------------3----||
-----4---4----4----4--4--4--|-----4---4----4----4--3----||
--0--2-0-2--0-2--0-2--2--2--|--0--2-0-2--0-2--0-2--1----||




Duration Legend
---------------
W - whole
H - half
Q - quarter
E - 8th
S - 16th
T - 32nd
X - 64th
. - note dotted
|-n-|  - n-tuplets


Tablature Legend
----------------
L - tied note
x - dead note
g - grace note
(n) - ghost note
> - accentuded note
NH - natural harmonic
AH - artificial harmonic
TH - tapped harmonic
SH - semi harmonic
PH - pitch harmonic
h - hammer on
p - pull off
b - bend
br - bendRelease
pb - preBend
pbr - preBendRelease
brb - bendReleaseBend
\n/ - tremolo bar dip
\n - tremolo bar dive
-/n - tremolo bar Release up
/n\ - tremolo bar inverted dip
/n - tremolo bar return
-\n - tremolo bar Release down
S - shift slide
s - legato slide
/ -  slide into from below or out of upwards
\ -  slide into from above or out of downwards
~ - vibrato
W - wide vibrato
tr - trill
TP - tremolo picking
T - tapping
S - slap
P - pop
< - fade in
^ - brush up
v - brush down
comments
We did not receive enough feedback on this tab! Please rate:
print report bad tab
1 2 3 4 5
I want to post or [tab]
guest
You may want to rate the tab now too:
select rating
Please do not post tabs as comments. Select "correction" instead!