Oops, an error
Loading. Please wait.

Chanel Tab

ver2
ver2

Whole song

More versions @911Tabs.com
155 views 1 this week
no commentswrite comment
1 2 3 4 5
please rate
Autoscroll
+/-
esc
set tempo
stop
Contributor
Difficulty
intermediate
WARNING: You are trying to view
                                    content from Ultimate-Guitar.com
                                    in an unauthorized application,
                                    which is prohibited.

                                    Please use an official Ultimate
                                    Guitar Tabs application for iPhone,
                                    iPad or Android to access legitimate
                                    chords, guitar, bass, and drum tabs
                                    from Ultimate-Guitar.com database.

                                    Type "ultimate guitar tabs" in Apple
                                    App Store's or Android Market's
                                    search to find the application.
-----------------------------------------------------------------------------
                 Chanel - Saigon Kick (GUITAR)
                       
-----------------------------------------------------------------------------
Tabbed by: Scotto10

Tuning: Standard

=============================================================================


Guitar 



                             E  E  E  E  E  E  E  E   
E||-------|-------|-------|--0-----0-----0-----0-----|
B||-------|-------|-------|--2-----2-----2-----2-----|
G||-------|-------|-------|--2-----2-----2-----2--0--|
D||-------|-------|-------|--2-----2-----2-----2--0--|
A||-------|-------|-------|--0-----0-----0-----0-----|
E||-------|-------|-------|--------------------------|


  Dm7    Dm7    Dm7    Dm7       G                        
  E   E  E   E  E   E  E   E     E  E  E  E  E  E  E  E   
--1------1------1------1------|--3-----3-----3-----3-----|
--1------1------1------1------|--3-----3-----3-----3-----|
--2------2------2------2------|--4-----4-----4-----4-----|
--0------0------0------0---x--|--5-----5-----5-----5--x--|
------------------------------|--5-----5-----5-----5-----|
------------------------------|--------------------------|


  C7M                         F                        
  E   E  E  E  E  E  E  E     E  E  E  E  E  E  E  E   
--3------3-----3-----3-----|--1-----1-----1-----1-----|
--5------5-----5-----5-----|--1-----1-----1-----1-----|
--4------4-----4-----4-----|--2-----2-----2-----2-----|
--5------5-----5-----5-----|--3-----3-----3-----3-----|
--3------3-----3-----3-----|--3-----3-----3-----3-----|
------------------------x--|-----------------------x--|


  E                                                   
  E  E  E  E  E  E  E  E     E  E  E  E  E  E  E  E   
--0-----0-----0-----0-----|--0-----0-----0-----0-----|
--0-----0-----0-----0-----|--2-----2-----2-----2-----|
--1-----1-----1-----1-----|--2-----2-----2-----2-----|
--2-----2-----2-----2-----|--2-----2-----2-----2-----|
--------------------------|--0-----0-----0-----0--x--|
-----------------------x--|--------------------------|


  E  E  E  E  E  E  E  E     E  E  E  E  E  E  E  E   
--0-----0-----0-----0-----|--0-----0-----0-----0-----|
--2-----2-----2-----2-----|--2-----2-----2-----2-----|
--2-----2-----2-----2-----|--2-----2-----2-----2--0--|
--2-----2-----2-----2-----|--2-----2-----2-----2--0--|
--0-----0-----0-----0--x--|--0-----0-----0-----0-----|
--------------------------|--------------------------|


  Dm7    Dm7    Dm7    Dm7       G                        
  E   E  E   E  E   E  E   E     E  E  E  E  E  E  E  E   
--1------1------1------1------|--3-----3-----3-----3-----|
--1------1------1------1------|--3-----3-----3-----3-----|
--2------2------2------2------|--4-----4-----4-----4-----|
--0------0------0------0---x--|--5-----5-----5-----5--x--|
------------------------------|--5-----5-----5-----5-----|
------------------------------|--------------------------|


  C7M                         F                        
  E   E  E  E  E  E  E  E     E  E  E  E  E  E  E  E   
--3------3-----3-----3-----|--1-----1-----1-----1-----|
--5------5-----5-----5-----|--1-----1-----1-----1-----|
--4------4-----4-----4-----|--2-----2-----2-----2-----|
--5------5-----5-----5-----|--3-----3-----3-----3-----|
--3------3-----3-----3-----|--3-----3-----3-----3-----|
------------------------x--|-----------------------x--|


  E                                                   
  E  E  E  E  E  E  E  E     E  E  E  E  E  E  E  E   
--0-----0-----0-----0-----|--0-----0-----0-----0-----|
--0-----0-----0-----0-----|--2-----2-----2-----2-----|
--1-----1-----1-----1-----|--2-----2-----2-----2-----|
--2-----2-----2-----2-----|--2-----2-----2-----2-----|
--------------------------|--0-----0-----0-----0--x--|
-----------------------x--|--------------------------|


  E  E  E  E  E  E  E  E     E  E  E  E  E  E  E  E   
--0-----0-----0-----0-----|--0-----0-----0-----0-----|
--2-----2-----2-----2-----|--2-----2-----2-----2-----|
--2-----2-----2-----2-----|--2-----2-----2-----2--0--|
--2-----2-----2-----2-----|--2-----2-----2-----2--0--|
--0-----0-----0-----0--x--|--0-----0-----0-----0-----|
--------------------------|--------------------------|


  Dm7    Dm7    Dm7    Dm7       G                        
  E   E  E   E  E   E  E   E     E  E  E  E  E  E  E  E   
--1------1------1------1------|--3-----3-----3-----3-----|
--1------1------1------1------|--3-----3-----3-----3-----|
--2------2------2------2------|--4-----4-----4-----4-----|
--0------0------0------0---x--|--5-----5-----5-----5--x--|
------------------------------|--5-----5-----5-----5-----|
------------------------------|--------------------------|


  C7M                         F                        
  E   E  E  E  E  E  E  E     E  E  E  E  E  E  E  E   
--3------3-----3-----3-----|--1-----1-----1-----1-----|
--5------5-----5-----5-----|--1-----1-----1-----1-----|
--4------4-----4-----4-----|--2-----2-----2-----2-----|
--5------5-----5-----5-----|--3-----3-----3-----3-----|
--3------3-----3-----3-----|--3-----3-----3-----3-----|
------------------------x--|-----------------------x--|


  E                                                                          
  E  E  E  E  E  E  E  E     E  E  E  E  E  E  E  E     Q    Q    Q    Q     
--0-----0-----0-----0-----|--0-----0-----0-----0-----|----------------------|
--0-----0-----0-----0-----|--2-----2-----2-----2-----|----------------------|
--1-----1-----1-----1-----|--2-----2-----2-----2-----|----------------------|
--2-----2-----2-----2-----|--2-----2-----2-----2-----|-----------------5----|
--------------------------|--0-----0-----0-----0--x--|--0----2----3---------|
-----------------------x--|--------------------------|----------------------|


  E  E  E  E  E  E  E  E     E  E  E  E  E  E  E  E   
--------1-----------1-----|--------1-----------1-----|
--------1-----------1-----|--------1-----------1-----|
--------2-----------2-----|--------2-----------2-----|
--3-----3-----3-----3-----|--3-----3-----3-----3-----|
--------------------------|--------------------------|
--------------------------|--------------------------|


  E  E  E  E  E  E  E  E     E  E  E  E  E  E  E  E   
--------0-----------0-----|--------0-----------0-----|
--------1-----------1-----|--------1-----------1-----|
--------0-----------0-----|--------0-----------0-----|
--------2-----------2-----|--------2-----------2-----|
--3-----------3-----------|--3-----------3-----------|
--------------------------|-----------------------x--|


  E  E  E  E  E  E  E  E     E  E  E  E  E  E  E  E     E  Q.     E  Q.      
--------2-----------2-----|--------2-----------2-----|----------------------|
--------3-----------3-----|--------3-----------3-----|--3--3------3--3------|
--------2-----------2-----|--------2-----------2-----|--0--0------0--0------|
--0-----0-----0-----0-----|--0-----0-----0-----0-----|--0--0------0--0------|
--------------------------|--------------------------|--2--2------2--2------|
--------------------------|--------------------------|--3--3------3--3------|


  E  Q.     E  Q.        E  E  E  E  E  E  E  E   
----------------------|--0-----0-----0-----0-----|
--3--3------3--3------|--2-----2-----2-----2-----|
--0--0------0--0------|--2-----2-----2-----2--0--|
--0--0------0--0------|--2-----2-----2-----2--0--|
--2--2------2--2------|--0-----0-----0-----0-----|
--3--3------3--3------|--------------------------|


  Dm7    Dm7    Dm7    Dm7       G                        
  E   E  E   E  E   E  E   E     E  E  E  E  E  E  E  E   
--1------1------1------1------|--3-----3-----3-----3-----|
--1------1------1------1------|--3-----3-----3-----3-----|
--2------2------2------2------|--4-----4-----4-----4-----|
--0------0------0------0---x--|--5-----5-----5-----5--x--|
------------------------------|--5-----5-----5-----5-----|
------------------------------|--------------------------|


  C7M                         F                        
  E   E  E  E  E  E  E  E     E  E  E  E  E  E  E  E   
--3------3-----3-----3-----|--1-----1-----1-----1-----|
--5------5-----5-----5-----|--1-----1-----1-----1-----|
--4------4-----4-----4-----|--2-----2-----2-----2-----|
--5------5-----5-----5-----|--3-----3-----3-----3-----|
--3------3-----3-----3-----|--3-----3-----3-----3-----|
------------------------x--|-----------------------x--|


  E                                                   
  E  E  E  E  E  E  E  E     E  E  E  E  E  E  E  E   
--0-----0-----0-----0-----|--0-----0-----0-----0-----|
--0-----0-----0-----0-----|--2-----2-----2-----2-----|
--1-----1-----1-----1-----|--2-----2-----2-----2-----|
--2-----2-----2-----2-----|--2-----2-----2-----2-----|
--------------------------|--0-----0-----0-----0--x--|
-----------------------x--|--------------------------|


  E  E  E  E  E  E  E  E     E  E  E  E  E  E  E  E   
--0-----0-----0-----0-----|--0-----0-----0-----0-----|
--2-----2-----2-----2-----|--2-----2-----2-----2-----|
--2-----2-----2-----2-----|--2-----2-----2-----2--0--|
--2-----2-----2-----2-----|--2-----2-----2-----2--0--|
--0-----0-----0-----0--x--|--0-----0-----0-----0-----|
--------------------------|--------------------------|


  Dm7    Dm7    Dm7    Dm7       G                        
  E   E  E   E  E   E  E   E     E  E  E  E  E  E  E  E   
--1------1------1------1------|--3-----3-----3-----3-----|
--1------1------1------1------|--3-----3-----3-----3-----|
--2------2------2------2------|--4-----4-----4-----4-----|
--0------0------0------0---x--|--5-----5-----5-----5--x--|
------------------------------|--5-----5-----5-----5-----|
------------------------------|--------------------------|


  C7M                         F                        
  E   E  E  E  E  E  E  E     E  E  E  E  E  E  E  E   
--3------3-----3-----3-----|--1-----1-----1-----1-----|
--5------5-----5-----5-----|--1-----1-----1-----1-----|
--4------4-----4-----4-----|--2-----2-----2-----2-----|
--5------5-----5-----5-----|--3-----3-----3-----3-----|
--3------3-----3-----3-----|--3-----3-----3-----3-----|
------------------------x--|-----------------------x--|


  E                                                                          
  E  E  E  E  E  E  E  E     E  E  E  E  E  E  E  E     Q    Q    Q    Q     
--0-----0-----0-----0-----|--0-----0-----0-----0-----|----------------------|
--0-----0-----0-----0-----|--2-----2-----2-----2-----|----------------------|
--1-----1-----1-----1-----|--2-----2-----2-----2-----|----------------------|
--2-----2-----2-----2-----|--2-----2-----2-----2-----|-----------------5----|
--------------------------|--0-----0-----0-----0--x--|--0----2----3---------|
-----------------------x--|--------------------------|----------------------|


  E  E  E  E  E  E  E  E     E  E  E  E  E  E  E  E   
--------1-----------1-----|--------1-----------1-----|
--------1-----------1-----|--------1-----------1-----|
--------2-----------2-----|--------2-----------2-----|
--3-----3-----3-----3-----|--3-----3-----3-----3-----|
--------------------------|--------------------------|
--------------------------|--------------------------|


  E  E  E  E  E  E  E  E     E  E  E  E  E  E  E  E   
--------0-----------0-----|--------0-----------0-----|
--------1-----------1-----|--------1-----------1-----|
--------0-----------0-----|--------0-----------0-----|
--------2-----------2-----|--------2-----------2-----|
--3-----------3-----------|--3-----------3-----------|
--------------------------|-----------------------x--|


  E  E  E  E  E  E  E  E     E  E  E  E  E  E  E  E     E  Q.     E  Q.      
--------2-----------2-----|--------2-----------2-----|----------------------|
--------3-----------3-----|--------3-----------3-----|--3--3------3--3------|
--------2-----------2-----|--------2-----------2-----|--0--0------0--0------|
--0-----0-----0-----0-----|--0-----0-----0-----0-----|--0--0------0--0------|
--------------------------|--------------------------|--2--2------2--2------|
--------------------------|--------------------------|--3--3------3--3------|


  E  Q.     E  Q.        E  E  E  E  E  E  E  E   
----------------------|--0-----0-----0-----0-----|
--3--3------3--3------|--2-----2-----2-----2-----|
--0--0------0--0------|--2-----2-----2-----2--0--|
--0--0------0--0------|--2-----2-----2-----2--0--|
--2--2------2--2------|--0-----0-----0-----0-----|
--3--3------3--3------|--------------------------|


  Dm7    Dm7    Dm7    Dm7       G                        
  E   E  E   E  E   E  E   E     E  E  E  E  E  E  E  E   
--1------1------1------1------|--3-----3-----3-----3-----|
--1------1------1------1------|--3-----3-----3-----3-----|
--2------2------2------2------|--4-----4-----4-----4-----|
--0------0------0------0---x--|--5-----5-----5-----5--x--|
------------------------------|--5-----5-----5-----5-----|
------------------------------|--------------------------|


  C7M                         F                        
  E   E  E  E  E  E  E  E     E  E  E  E  E  E  E  E   
--3------3-----3-----3-----|--1-----1-----1-----1-----|
--5------5-----5-----5-----|--1-----1-----1-----1-----|
--4------4-----4-----4-----|--2-----2-----2-----2-----|
--5------5-----5-----5-----|--3-----3-----3-----3-----|
--3------3-----3-----3-----|--3-----3-----3-----3-----|
------------------------x--|-----------------------x--|


  E                                                   
  E  E  E  E  E  E  E  E     E  E  E  E  E  E  E  E   
--0-----0-----0-----0-----|--0-----0-----0-----0-----|
--0-----0-----0-----0-----|--2-----2-----2-----2-----|
--1-----1-----1-----1-----|--2-----2-----2-----2--0--|
--2-----2-----2-----2-----|--2-----2-----2-----2--0--|
--------------------------|--0-----0-----0-----0-----|
-----------------------x--|--------------------------|


  E  E  E  E  E  E  E  E     E  E  E  E  E  E  E  E   
--0-----0-----0-----0-----|--0-----0-----0-----0-----|
--2-----2-----2-----2-----|--2-----2-----2-----2-----|
--2-----2-----2-----2--0--|--2-----2-----2-----2--0--|
--2-----2-----2-----2--0--|--2-----2-----2-----2--0--|
--0-----0-----0-----0-----|--0-----0-----0-----0-----|
--------------------------|--------------------------|


  Dm7    Dm7    Dm7    Dm7       G                        
  E   E  E   E  E   E  E   E     E  E  E  E  E  E  E  E   
--1------1------1------1------|--3-----3-----3-----3-----|
--1------1------1------1------|--3-----3-----3-----3-----|
--2------2------2------2------|--4-----4-----4-----4-----|
--0------0------0------0---x--|--5-----5-----5-----5--x--|
------------------------------|--5-----5-----5-----5-----|
------------------------------|--------------------------|


  C7M                         F                        
  E   E  E  E  E  E  E  E     E  E  E  E  E  E  E  E   
--3------3-----3-----3-----|--1-----1-----1-----1-----|
--5------5-----5-----5-----|--1-----1-----1-----1-----|
--4------4-----4-----4-----|--2-----2-----2-----2-----|
--5------5-----5-----5-----|--3-----3-----3-----3-----|
--3------3-----3-----3-----|--3-----3-----3-----3-----|
------------------------x--|-----------------------x--|


  E                                                   
  E  E  E  E  E  E  E  E     E  E  E  E  E  E  E  E   
--0-----0-----0-----0-----|--0-----0-----0-----0-----|
--0-----0-----0-----0-----|--2-----2-----2-----2-----|
--1-----1-----1-----1-----|--2-----2-----2-----2--0--|
--2-----2-----2-----2-----|--2-----2-----2-----2--0--|
--------------------------|--0-----0-----0-----0-----|
-----------------------x--|--------------------------|


  E  E  E  E  E  E  E  E     E  E  E  E  E  E  E  E   
--0-----0-----0-----0-----|--------1-----------1-----|
--2-----2-----2-----2-----|--------1-----------1-----|
--2-----2-----2-----2--0--|--------2-----------2-----|
--2-----2-----2-----2--0--|--3-----3-----3-----3-----|
--0-----0-----0-----0-----|--------------------------|
--------------------------|--------------------------|


  E  E  E  E  E  E  E  E     E  E  E  E  E  E  E  E   
--------1-----------1-----|--------0-----------0-----|
--------1-----------1-----|--------1-----------1-----|
--------2-----------2-----|--------0-----------0-----|
--3-----3-----3-----3-----|--------2-----------2-----|
--------------------------|--3-----------3-----------|
--------------------------|--------------------------|


  E  E  E  E  E  E  E  E     E  E  E  E  E  E  E  E   
--------0-----------0-----|--------2-----------2-----|
--------1-----------1-----|--------3-----------3-----|
--------0-----------0-----|--------2-----------2-----|
--------2-----------2-----|--0-----0-----0-----0-----|
--3-----------3-----------|--------------------------|
-----------------------x--|--------------------------|


  E  E  E  E  E  E  E  E     E  Q.     E  Q.        E  Q.     E  Q.      
--------2-----------2-----|----------------------|----------------------|
--------3-----------3-----|--3--3------3--3------|--3--3------3--3------|
--------2-----------2-----|--0--0------0--0------|--0--0------0--0------|
--0-----0-----0-----0-----|--0--0------0--0------|--0--0------0--0------|
--------------------------|--2--2------2--2------|--2--2------2--2------|
--------------------------|--3--3------3--3------|--3--3------3--3------|


                             Dm7    Dm7    Dm7    Dm7     
  E  E  E  E  E  E  E  E     E   E  E   E  E   E  E   E   
--0-----0-----0-----0-----|--1------1------1------1------|
--2-----2-----2-----2-----|--1------1------1------1------|
--2-----2-----2-----2--0--|--2------2------2------2------|
--2-----2-----2-----2--0--|--0------0------0------0---x--|
--0-----0-----0-----0-----|------------------------------|
--------------------------|------------------------------|


  G                          C7M                       
  E  E  E  E  E  E  E  E     E   E  E  E  E  E  E  E   
--3-----3-----3-----3-----|--3------3-----3-----3-----|
--3-----3-----3-----3-----|--5------5-----5-----5-----|
--4-----4-----4-----4-----|--4------4-----4-----4-----|
--5-----5-----5-----5--x--|--5------5-----5-----5-----|
--5-----5-----5-----5-----|--3------3-----3-----3-----|
--------------------------|------------------------x--|


  F                          E                        
  E  E  E  E  E  E  E  E     E  E  E  E  E  E  E  E   
--1-----1-----1-----1-----|--0-----0-----0-----0-----|
--1-----1-----1-----1-----|--0-----0-----0-----0-----|
--2-----2-----2-----2-----|--1-----1-----1-----1-----|
--3-----3-----3-----3-----|--2-----2-----2-----2-----|
--3-----3-----3-----3-----|--------------------------|
-----------------------x--|-----------------------x--|


  E  E  E  E  E  E  E  E     E  E  E  E  E  E  E  E   
--0-----0-----0-----0-----|--0-----0-----0-----0-----|
--2-----2-----2-----2-----|--2-----2-----2-----2-----|
--2-----2-----2-----2-----|--2-----2-----2-----2-----|
--2-----2-----2-----2-----|--2-----2-----2-----2-----|
--0-----0-----0-----0--x--|--0-----0-----0-----0--x--|
--------------------------|--------------------------|


                             Dm7    Dm7    Dm7    Dm7     
  E  E  E  E  E  E  E  E     E   E  E   E  E   E  E   E   
--0-----0-----0-----0-----|--1------1------1------1------|
--2-----2-----2-----2-----|--1------1------1------1------|
--2-----2-----2-----2--0--|--2------2------2------2------|
--2-----2-----2-----2--0--|--0------0------0------0---x--|
--0-----0-----0-----0-----|------------------------------|
--------------------------|------------------------------|


  G                          C7M                       
  E  E  E  E  E  E  E  E     E   E  E  E  E  E  E  E   
--3-----3-----3-----3-----|--3------3-----3-----3-----|
--3-----3-----3-----3-----|--5------5-----5-----5-----|
--4-----4-----4-----4-----|--4------4-----4-----4-----|
--5-----5-----5-----5--x--|--5------5-----5-----5-----|
--5-----5-----5-----5-----|--3------3-----3-----3-----|
--------------------------|------------------------x--|


  F                          E                        
  E  E  E  E  E  E  E  E     E  E  E  E  E  E  E  E   
--1-----1-----1-----1-----|--0-----0-----0-----0-----|
--1-----1-----1-----1-----|--0-----0-----0-----0-----|
--2-----2-----2-----2-----|--1-----1-----1-----1-----|
--3-----3-----3-----3-----|--2-----2-----2-----2-----|
--3-----3-----3-----3-----|--------------------------|
-----------------------x--|-----------------------x--|


  E  E  E  E  E  E  E  E     E  E  E  E  E  E  E  E   
--0-----0-----0-----0-----|--0-----0-----0-----0-----|
--2-----2-----2-----2-----|--2-----2-----2-----2-----|
--2-----2-----2-----2-----|--2-----2-----2-----2-----|
--2-----2-----2-----2-----|--2-----2-----2-----2-----|
--0-----0-----0-----0--x--|--0-----0-----0-----0--x--|
--------------------------|--------------------------|


  F                          E                        
  E  E  E  E  E  E  E  E     E  E  E  E  E  E  E  E   
--1-----1-----1-----1-----|--0-----0-----0-----0-----|
--1-----1-----1-----1-----|--0-----0-----0-----0-----|
--2-----2-----2-----2-----|--1-----1-----1-----1-----|
--3-----3-----3-----3-----|--2-----2-----2-----2-----|
--3-----3-----3-----3-----|--------------------------|
-----------------------x--|-----------------------x--|


  E  E  E  E  E  E  E  E     E  E  E  E  E  E  E  E   
--0-----0-----0-----0-----|--0-----0-----0-----0-----|
--2-----2-----2-----2-----|--2-----2-----2-----2-----|
--2-----2-----2-----2-----|--2-----2-----2-----2-----|
--2-----2-----2-----2-----|--2-----2-----2-----2-----|
--0-----0-----0-----0--x--|--0-----0-----0-----0--x--|
--------------------------|--------------------------|


  F                          E                          A                    
  E  E  E  E  E  E  E  E     E  E  E  E  E  E  E  E     E  E  H.             
--1-----1-----1-----1-----|--0-----0-----0-----0-----|--0------------------||
--1-----1-----1-----1-----|--0-----0-----0-----0-----|--2------------------||
--2-----2-----2-----2-----|--1-----1-----1-----1-----|--2------------------||
--3-----3-----3-----3-----|--2-----2-----2-----2-----|--2------------------||
--3-----3-----3-----3-----|--------------------------|--0------------------||
-----------------------x--|-----------------------x--|---------------------||




=================================================================
=================================================================
=================================================================

                                    Chanel                                      


                                                                     Saigon Kick
Guitar (solo)



  |--3--|  |--3--|    3            3 3                                  
  E  E  E  E  E  E    E  S  S S S  S E.     E  S E  Q    S  S  S E.  S  
--8--7--5--7--5-----xg5------------------|-----------------------------|
-----------------------------------------|--6--------------------------|
-----------------8-------8S-7-5-7s-9-5---|-----7-5---------------5---7-|
-----------------------------------------|---------------5s-6s-7-------|
-----------------------------------------|-----------------------------|
-----------------------------------------|-----------------------------|


  Q    S S  S  S E.  S S S S S    Q    S S S S S S S S S S S S  
-------------------------------|-------------------------------|
-------------------------------|-------------------------------|
--4--------------5---7-4---7-5-|--L----4-7-5-4-5-4---4---------|
---------5s-6s-7---------7-----|-------------------7---7-5-7-5-|
-------------------------------|-------------------------------|
-------------------------------|-------------------------------|


  S S S S S S S S S S  S S S S S S    S S S S S E  Q    E  E.   
-----------------------------------|---------------------------|
-----------------------------------|---------------------------|
-----------------------------------|------------5--------------|
----5------------------------------|----------5----7----5--7---|
--8---8-7-5-4-3----------------4-5-|----5-7-5------------------|
----------------5-3-5s-7-5-6-7-----|--7------------------------|


  H        Q    E  E     H        H         
----------------------|--------------------|
----------------------|--------------------|
----------------5-----|--------------------|
--L----------------7--|--L-----------------|
----------------------|--------------------|
----------------------|--------------------|


   |--3--|  |--3--|  |--3--|  |--3--|      |--3--|  |--3--|  |--3--|  |--3--|   
   E  E  E  E  E  E  E  E  E  E  E  E      E  E  E  E  E  E  E  E  E  E  E  E   
--/8--8--8--8--8--8--8--8--8--8--8--8--|--/8--8--8--8--8--8--8--8--8--8--8--8--|
---------------------------------------|---------------------------------------|
--/5--5--5--5--5--5--5--5--5--5--5--5--|--/5--5--5--5--5--5--5--5--5--5--5--5--|
---------------------------------------|---------------------------------------|
---------------------------------------|---------------------------------------|
---------------------------------------|---------------------------------------|


   |--3--|   |---3--|   |---3--|   |---3--|   
   E  E  E   E  E   E   E   E  E   E  E   E   
--/8--8--8---------10------12------------10--|
---------------------------------------------|
--/5--5--5--/7--7---7--/9---9--9--\7--7---7--|
---------------------------------------------|
---------------------------------------------|
---------------------------------------------|


  |--3--|  |--3--|   |--3-|                                               
  E  E  E  E  E  E   Q    E  Q       S. S S  S S S. S S  S S S. S S  S T  
--------8--------7----------------|--------------------------------------|
----------------------------------|--------------------------------------|
--5--5--5--4--4--4--/5------------|--9--8-7------9--8-7------9--8-7----9-|
----------------------------------|---------10-7--------10-7--------10---|
----------------------------------|--------------------------------------|
----------------------------------|--------------------------------------|


  S S S  S S S  S S  S  S  Q    E      E  S S Q    S. S S. S. S S.  
-----------------------------------|-------------------------------|
--------------------------10-------|-------------------------------|
--L-8-7-----------7s-8s-9----------|------5------------------------|
--------10-7---10------------------|--/6----5-7----7--5------------|
-----------------------------------|--------------------7--6--5-3--|
-----------------------------------|-------------------------------|


  Q     H         Q                                             
-----------------------|-------------------|-------------------|
-----------------------|-------------------|-------------------|
-----------------------|-------------------|-------------------|
-----------------------|-------------------|-------------------|
--5b----3~-------------|-------------------|-------------------|
-----------------------|-------------------|-------------------|







Outro Solo:

                                          S. S S  S S S. S S  S S S. S S  S T  
-------------------|-------------------|--------------------------------------|
-------------------|-------------------|--------------------------------------|
-------------------|-------------------|--9--8-7------9--8-7------9--8-7----9-|
-------------------|-------------------|---------10-7--------10-7--------10---|
-------------------|-------------------|--------------------------------------|
-------------------|-------------------|--------------------------------------|


  S S S  S S S S S  S S S S S  S S S      H        H                     
--------------------------------------|---------------------|-----------|
--------------------------------------|---------------------|-----------|
--L-8-7------9-8-7------9-8-7---------|---------------------|-----------|
--------10-7-------10-7-------10-7-7S-|--19-----------------|-----------|
--------------------------------------|---------------------|-----------|
--------------------------------------|---------------------|-----------|


  S. S S  S S S. S S  S S S. S S  S T    S S S  S S S S S  S S S S S  S S S   
--------------------------------------|--------------------------------------|
--------------------------------------|--------------------------------------|
--9--8-7------9--8-7------9--8-7----9-|--L-8-7------9-8-7------9-8-7---------|
---------10-7--------10-7--------10---|--------10-7-------10-7-------10-7-7S-|
--------------------------------------|--------------------------------------|
--------------------------------------|--------------------------------------|


   H        H                       S. S S  S S S. S S  S S S. S S  S T  
---------------------|-----------|--------------------------------------|
---------------------|-----------|--------------------------------------|
---------------------|-----------|--9--8-7------9--8-7------9--8-7----9-|
--19-----------------|-----------|---------10-7--------10-7--------10---|
---------------------|-----------|--------------------------------------|
---------------------|-----------|--------------------------------------|


  S S S  S S S S S  S S S S S  S E     E  H        Q    E    
------------------------------------|----------------------||
------------------------------------|----------------------||
--L-8-7------9-8-7------9-8-7-------|----------------------||
--------10-7-------10-7-------10-7--|--7-------------------||
------------------------------------|----------------------||
------------------------------------|----------------------||




Duration Legend
---------------
W - whole
H - half
Q - quarter
E - 8th
S - 16th
T - 32nd
X - 64th
. - note dotted
|-n-|  - n-tuplets


Tablature Legend
----------------
L - tied note
x - dead note
g - grace note
(n) - ghost note
> - accentuded note
NH - natural harmonic
AH - artificial harmonic
TH - tapped harmonic
SH - semi harmonic
PH - pitch harmonic
h - hammer on
p - pull off
b - bend
br - bendRelease
pb - preBend
pbr - preBendRelease
brb - bendReleaseBend
\n/ - tremolo bar dip
\n - tremolo bar dive
-/n - tremolo bar Release up
/n\ - tremolo bar inverted dip
/n - tremolo bar return
-\n - tremolo bar Release down
S - shift slide
s - legato slide
/ -  slide into from below or out of upwards
\ -  slide into from above or out of downwards
~ - vibrato
W - wide vibrato
tr - trill
TP - tremolo picking
T - tapping
S - slap
P - pop
< - fade in
^ - brush up
v - brush down
comments
We did not receive enough feedback on this tab! Please rate:
print report bad tab
1 2 3 4 5
I want to post or [tab]
guest
You may want to rate the tab now too:
select rating
Please do not post tabs as comments. Select "correction" instead!