Oops, an error
Loading. Please wait.

God Of 42nd Street Tab

284 views 1 this week
no commentswrite comment
1 2 3 4 5
please rate
Autoscroll
+/-
esc
set tempo
stop
Contributor
Difficulty
intermediate
WARNING: You are trying to view
                                    content from Ultimate-Guitar.com
                                    in an unauthorized application,
                                    which is prohibited.

                                    Please use an official Ultimate
                                    Guitar Tabs application for iPhone,
                                    iPad or Android to access legitimate
                                    chords, guitar, bass, and drum tabs
                                    from Ultimate-Guitar.com database.

                                    Type "ultimate guitar tabs" in Apple
                                    App Store's or Android Market's
                                    search to find the application.
-----------------------------------------------------------------------------
                 God of 42nd Street - Saigon Kick (GUITAR)
                       
-----------------------------------------------------------------------------
Tabbed by: Scotto10

Tuning: Standard

=============================================================================

Guitar - acoustic


There are very slight variations between guitar 1 and guitar 2. One has 
arrpegiated chords in places and power chords for the Chorus. That's about it. 
Lead guitar is at the bottom.


     Q    E  S S S S S S E  S S    E  S S E  S S S S S S E  S S  
E||--0----0--0-0-0-0-0-0-0------|--0--0-0-0--0-0-0-0-0-0-0------|
B||--0----0--0-0-0-0-0-0-0--0-0-|--0--0-0-0--0-0-0-0-0-0-0--0-0-|
G||--0----0--0-0-0-0-0-0-0--0-0-|--2--2-2-2--2-2-2-2-2-2-2--0-0-|
D||--2----2--2-2-2-2-2-2-2--0-0-|--2--2-2-2--2-2-2-2-2-2-2------|
A||--2----2------2-------2------|--0------0------0-------0--2-2-|
E||--0----0------0-------0------|-------------------------------|


  E  S S E  S S S S S S E  S S    E  E  S S S S E  E  S S S S  
--0--0-0-0--0-0-0-0-0-0-0------|--3--3--3-3-3-3---------------|
--1--1-1-1--1-1-1-1-1-1-1--0-0-|--3--3--3-3-3-3-3--3--3-3-3-0-|
--0--0-0-0--0-0-0-0-0-0-0--0-0-|--0--0--0-0-0-0-2--2--2-2-2-0-|
--2--2-2-2--2-2-2-2-2-2-2------|--0--0--0-0-0-0-0--0--0-0-0-0-|
--3------3------3-------3--2-2-|--2--2--2-2-2-2-------------0-|
-------------------------------|--3-----3---------------------|


  Q    E  S S S S S S E  S S    E  S S E  S S S S S S E  S S  
--0----0--0-0-0-0-0-0-0------|--0--0-0-0--0-0-0-0-0-0-0------|
--0----0--0-0-0-0-0-0-0--0-0-|--0--0-0-0--0-0-0-0-0-0-0--0-0-|
--0----0--0-0-0-0-0-0-0--0-0-|--2--2-2-2--2-2-2-2-2-2-2--0-0-|
--2----2--2-2-2-2-2-2-2--0-0-|--2--2-2-2--2-2-2-2-2-2-2------|
--2----2------2-------2------|--0------0------0-------0--2-2-|
--0----0------0-------0------|-------------------------------|


  E  S S E  S S S S S S E  S S    E  E  S S S S E  E  S S S S  
--0--0-0-0--0-0-0-0-0-0-0------|--3--3--3-3-3-3---------------|
--1--1-1-1--1-1-1-1-1-1-1--0-0-|--3--3--3-3-3-3-3--3--3-3-3-0-|
--0--0-0-0--0-0-0-0-0-0-0--0-0-|--0--0--0-0-0-0-2--2--2-2-2-0-|
--2--2-2-2--2-2-2-2-2-2-2------|--0--0--0-0-0-0-0--0--0-0-0-0-|
--3------3------3-------3--2-2-|--2--2--2-2-2-2-------------0-|
-------------------------------|--3-----3---------------------|


  Q    E  S S S S S S E  S S    E  S S E  S S S S S S E  S S  
--0----0--0-0-0-0-0-0-0------|--0--0-0-0--0-0-0-0-0-0-0------|
--0----0--0-0-0-0-0-0-0--0-0-|--0--0-0-0--0-0-0-0-0-0-0--0-0-|
--0----0--0-0-0-0-0-0-0--0-0-|--2--2-2-2--2-2-2-2-2-2-2--0-0-|
--2----2--2-2-2-2-2-2-2--0-0-|--2--2-2-2--2-2-2-2-2-2-2------|
--2----2------2-------2------|--0------0------0-------0--2-2-|
--0----0------0-------0------|-------------------------------|


  E  S S E  S S S S S S E  S S    E  E  S S S S E  E  S S S S  
--0--0-0-0--0-0-0-0-0-0-0------|--3--3--3-3-3-3---------------|
--1--1-1-1--1-1-1-1-1-1-1--0-0-|--3--3--3-3-3-3-3--3--3-3-3-0-|
--0--0-0-0--0-0-0-0-0-0-0--0-0-|--0--0--0-0-0-0-2--2--2-2-2-0-|
--2--2-2-2--2-2-2-2-2-2-2------|--0--0--0-0-0-0-0--0--0-0-0-0-|
--3------3------3-------3--2-2-|--2--2--2-2-2-2-------------0-|
-------------------------------|--3-----3---------------------|


  Q    E  S S S S S S E  S S    E  S S E  S S S S S S E  S S  
--0----0--0-0-0-0-0-0-0------|--0--0-0-0--0-0-0-0-0-0-0------|
--0----0--0-0-0-0-0-0-0--0-0-|--0--0-0-0--0-0-0-0-0-0-0--0-0-|
--0----0--0-0-0-0-0-0-0--0-0-|--2--2-2-2--2-2-2-2-2-2-2--0-0-|
--2----2--2-2-2-2-2-2-2--0-0-|--2--2-2-2--2-2-2-2-2-2-2------|
--2----2------2-------2------|--0------0------0-------0--2-2-|
--0----0------0-------0------|-------------------------------|


  E  S S E  S S S S S S E  S S    E  E  S S S S E  E  S S S S  
--0--0-0-0--0-0-0-0-0-0-0------|--3--3--3-3-3-3---------------|
--1--1-1-1--1-1-1-1-1-1-1--0-0-|--3--3--3-3-3-3-3--3--3-3-3-0-|
--0--0-0-0--0-0-0-0-0-0-0--0-0-|--0--0--0-0-0-0-2--2--2-2-2-0-|
--2--2-2-2--2-2-2-2-2-2-2------|--0--0--0-0-0-0-0--0--0-0-0-0-|
--3------3------3-------3--2-2-|--2--2--2-2-2-2-------------0-|
-------------------------------|--3-----3---------------------|


  W                   W                   W                   W                 
-------------------|-------------------|-------------------|-------------------|
-------------------|-------------------|-------------------|-------------------|
-------------------|-------------------|-------------------|-------------------|
-------------------|-------------------|-------------------|-------------------|
-------------------|-------------------|-------------------|-------------------|
-------------------|-------------------|-------------------|-------------------|


  W                   W                   Q.     E  Q    Q     
-------------------|-------------------|----------------------|
-------------------|-------------------|--3---------3----3----|
-------------------|-------------------|--0---------0----0----|
-------------------|-------------------|--2---------0----0----|
-------------------|-------------------|--3---------2----2----|
-------------------|-------------------|-----------------3----|


  Q    S S Q    S S E  S S    Q    E  S S S S S S E  S S  
--0----0-0-0----0-0-0--0-0-|--0----0--0-0-0-0-0-0-0------|
--0----0-0-0----0-0-0--0-0-|--0----0--0-0-0-0-0-0-0--0-0-|
--0----0-0-0----0-0-0--0-0-|--0----0--0-0-0-0-0-0-0--0-0-|
--2----2-2-2----2-2-2--2-2-|--2----2--2-2-2-2-2-2-2--0-0-|
--2------------------------|--2----2------2-------2------|
--0------------------------|--0----0------0-------0------|


  E  S S E  S S S S S S E  S S    E  S S E  S S S S S S E  S S  
--0--0-0-0--0-0-0-0-0-0-0------|--0--0-0-0--0-0-0-0-0-0-0------|
--0--0-0-0--0-0-0-0-0-0-0--0-0-|--1--1-1-1--1-1-1-1-1-1-1--0-0-|
--2--2-2-2--2-2-2-2-2-2-2--0-0-|--0--0-0-0--0-0-0-0-0-0-0--0-0-|
--2--2-2-2--2-2-2-2-2-2-2------|--2--2-2-2--2-2-2-2-2-2-2------|
--0------0------0-------0--2-2-|--3------3------3-------3--2-2-|
-------------------------------|-------------------------------|


  E  E  S S S S E  E  S S S S    Q    E  S S S S S S E  S S  
--3--3--3-3-3-3---------------|--0----0--0-0-0-0-0-0-0------|
--3--3--3-3-3-3-3--3--3-3-3-0-|--0----0--0-0-0-0-0-0-0--0-0-|
--0--0--0-0-0-0-2--2--2-2-2-0-|--0----0--0-0-0-0-0-0-0--0-0-|
--0--0--0-0-0-0-0--0--0-0-0-0-|--2----2--2-2-2-2-2-2-2--0-0-|
--2--2--2-2-2-2-------------0-|--2----2------2-------2------|
--3-----3---------------------|--0----0------0-------0------|


  E  S S E  S S S S S S E  S S    E  S S E  S S S S S S E  S S  
--0--0-0-0--0-0-0-0-0-0-0------|--0--0-0-0--0-0-0-0-0-0-0------|
--0--0-0-0--0-0-0-0-0-0-0--0-0-|--1--1-1-1--1-1-1-1-1-1-1--0-0-|
--2--2-2-2--2-2-2-2-2-2-2--0-0-|--0--0-0-0--0-0-0-0-0-0-0--0-0-|
--2--2-2-2--2-2-2-2-2-2-2------|--2--2-2-2--2-2-2-2-2-2-2------|
--0------0------0-------0--2-2-|--3------3------3-------3--2-2-|
-------------------------------|-------------------------------|


  E  E  S S S S E  E  S S S S    Q    E  S S S S S S E  S S  
--3--3--3-3-3-3---------------|--0----0--0-0-0-0-0-0-0------|
--3--3--3-3-3-3-3--3--3-3-3-0-|--0----0--0-0-0-0-0-0-0--0-0-|
--0--0--0-0-0-0-2--2--2-2-2-0-|--0----0--0-0-0-0-0-0-0--0-0-|
--0--0--0-0-0-0-0--0--0-0-0-0-|--2----2--2-2-2-2-2-2-2--0-0-|
--2--2--2-2-2-2-------------0-|--2----2------2-------2------|
--3-----3---------------------|--0----0------0-------0------|


  E  S S E  S S S S S S E  S S    E  S S E  S S S S S S E  S S  
--0--0-0-0--0-0-0-0-0-0-0------|--0--0-0-0--0-0-0-0-0-0-0------|
--0--0-0-0--0-0-0-0-0-0-0--0-0-|--1--1-1-1--1-1-1-1-1-1-1--0-0-|
--2--2-2-2--2-2-2-2-2-2-2--0-0-|--0--0-0-0--0-0-0-0-0-0-0--0-0-|
--2--2-2-2--2-2-2-2-2-2-2------|--2--2-2-2--2-2-2-2-2-2-2------|
--0------0------0-------0--2-2-|--3------3------3-------3--2-2-|
-------------------------------|-------------------------------|


  E  E  S S S S E  E  S S S S    W                   W                 
--3--3--3-3-3-3---------------|-------------------|-------------------|
--3--3--3-3-3-3-3--3--3-3-3-0-|-------------------|-------------------|
--0--0--0-0-0-0-2--2--2-2-2-0-|-------------------|-------------------|
--0--0--0-0-0-0-0--0--0-0-0-0-|-------------------|-------------------|
--2--2--2-2-2-2-------------0-|-------------------|-------------------|
--3-----3---------------------|-------------------|-------------------|


  W                   W                   W                   W                 
-------------------|-------------------|-------------------|-------------------|
-------------------|-------------------|-------------------|-------------------|
-------------------|-------------------|-------------------|-------------------|
-------------------|-------------------|-------------------|-------------------|
-------------------|-------------------|-------------------|-------------------|
-------------------|-------------------|-------------------|-------------------|


  Q    E.  S E  E  E.  S    Q    Q    S E  E  S E     Q    E.  S E  E  E.  S  
-------------------------|--0----0----0-0--0--0-0--|-------------------------|
--3----3---3-3--3--3---3-|--0----0----0-0--0--0-0--|--1----1---1-3--3--3---3-|
--0----0---0-2--2--2---2-|--0----0----0-0--0--0-0--|--0----0---0-0--0--0---0-|
--0----0---0-0--0--0---0-|--2----2----2-2--2--2-2--|--2----2---2-0--0--0---0-|
--2----2---2-------------|--2----2----2-2--2--2-2--|--3----3---3-2--2--2---2-|
--3----3---3-2--2--2---2-|--0----0----0-0--0--0-0--|-------------------------|


  Q    Q    S S S S S E  S    Q    E.  S E  E  E.  S    Q    Q    S E  E  S E   
--0----0----0-0-0-----0--0-|-------------------------|--0----0----0-0--0--0-0--|
--0----0----0-0-0-0-0-0--0-|--3----3---3-3--3--3---3-|--0----0----0-0--0--0-0--|
--2----2----2-2-2-2-2-2--2-|--0----0---0-2--2--2---2-|--0----0----0-0--0--0-0--|
--2----2----2-2-2-2-2-2--2-|--0----0---0-0--0--0---0-|--2----2----2-2--2--2-2--|
--0----0----0-0-0-0-0-0--0-|--2----2---2-------------|--2----2----2-2--2--2-2--|
---------------------------|--3----3---3-2--2--2---2-|--0----0----0-0--0--0-0--|


  Q    E.  S E  E  E.  S    Q    Q    S S  S S S E  S                      
-------------------------|--0----0----0-0--0-----0--0-|-------------------|
--1----1---1-3--3--3---3-|--0----0----0-0--0-0-0-0--0-|-------------------|
--0----0---0-0--0--0---0-|--2----2----2-0h-2-2-2-2--2-|-------------------|
--2----2---2-0--0--0---0-|--2----2----2-2--2-2-2-2--2-|-------------------|
--3----3---3-2--2--2---2-|--0----0----0-0--0-0-0-0--0-|-------------------|
-------------------------|----------------------------|-------------------|


-------------------|-------------------|-------------------|-------------------|
-------------------|-------------------|-------------------|-------------------|
-------------------|-------------------|-------------------|-------------------|
-------------------|-------------------|-------------------|-------------------|
-------------------|-------------------|-------------------|-------------------|
-------------------|-------------------|-------------------|-------------------|


-------------------|-------------------|-------------------|-------------------|
-------------------|-------------------|-------------------|-------------------|
-------------------|-------------------|-------------------|-------------------|
-------------------|-------------------|-------------------|-------------------|
-------------------|-------------------|-------------------|-------------------|
-------------------|-------------------|-------------------|-------------------|


-------------------|-------------------|-------------------|-------------------|
-------------------|-------------------|-------------------|-------------------|
-------------------|-------------------|-------------------|-------------------|
-------------------|-------------------|-------------------|-------------------|
-------------------|-------------------|-------------------|-------------------|
-------------------|-------------------|-------------------|-------------------|


                      Q.     E  Q    Q       Q    S S Q    S S E  S S  
-------------------|----------------------|--0----0-0-0----0-0-0--0-0-|
-------------------|--3---------3----3----|--0----0-0-0----0-0-0--0-0-|
-------------------|--0---------0----0----|--0----0-0-0----0-0-0--0-0-|
-------------------|--2---------0----0----|--2----2-2-2----2-2-2--2-2-|
-------------------|--3---------2----2----|--2------------------------|
-------------------|-----------------3----|--0------------------------|


  Q    E  S S S S S S E  S S    E  S S E  S S S S S S E  S S  
--0----0--0-0-0-0-0-0-0------|--0--0-0-0--0-0-0-0-0-0-0------|
--0----0--0-0-0-0-0-0-0--0-0-|--0--0-0-0--0-0-0-0-0-0-0--0-0-|
--0----0--0-0-0-0-0-0-0--0-0-|--2--2-2-2--2-2-2-2-2-2-2--0-0-|
--2----2--2-2-2-2-2-2-2--0-0-|--2--2-2-2--2-2-2-2-2-2-2------|
--2----2------2-------2------|--0------0------0-------0--2-2-|
--0----0------0-------0------|-------------------------------|


  E  S S E  S S S S S S E  S S    E  E  S S S S E  E  S S S S  
--0--0-0-0--0-0-0-0-0-0-0------|--3--3--3-3-3-3---------------|
--1--1-1-1--1-1-1-1-1-1-1--0-0-|--3--3--3-3-3-3-3--3--3-3-3-0-|
--0--0-0-0--0-0-0-0-0-0-0--0-0-|--0--0--0-0-0-0-2--2--2-2-2-0-|
--2--2-2-2--2-2-2-2-2-2-2------|--0--0--0-0-0-0-0--0--0-0-0-0-|
--3------3------3-------3--2-2-|--2--2--2-2-2-2-------------0-|
-------------------------------|--3-----3---------------------|


  Q    E  S S S S S S E  S S    E  S S E  S S S S S S E  S S  
--0----0--0-0-0-0-0-0-0------|--0--0-0-0--0-0-0-0-0-0-0------|
--0----0--0-0-0-0-0-0-0--0-0-|--0--0-0-0--0-0-0-0-0-0-0--0-0-|
--0----0--0-0-0-0-0-0-0--0-0-|--2--2-2-2--2-2-2-2-2-2-2--0-0-|
--2----2--2-2-2-2-2-2-2--0-0-|--2--2-2-2--2-2-2-2-2-2-2------|
--2----2------2-------2------|--0------0------0-------0--2-2-|
--0----0------0-------0------|-------------------------------|


  E  S S E  S S S S S S E  S S    E  E  S S S S E  E  S S S S  
--0--0-0-0--0-0-0-0-0-0-0------|--3--3--3-3-3-3---------------|
--1--1-1-1--1-1-1-1-1-1-1--0-0-|--3--3--3-3-3-3-3--3--3-3-3-0-|
--0--0-0-0--0-0-0-0-0-0-0--0-0-|--0--0--0-0-0-0-2--2--2-2-2-0-|
--2--2-2-2--2-2-2-2-2-2-2------|--0--0--0-0-0-0-0--0--0-0-0-0-|
--3------3------3-------3--2-2-|--2--2--2-2-2-2-------------0-|
-------------------------------|--3-----3---------------------|


  Q    E  S S S S S S E  S S    E  S S E  S S S S S S E  S S  
--0----0--0-0-0-0-0-0-0------|--0--0-0-0--0-0-0-0-0-0-0------|
--0----0--0-0-0-0-0-0-0--0-0-|--0--0-0-0--0-0-0-0-0-0-0--0-0-|
--0----0--0-0-0-0-0-0-0--0-0-|--2--2-2-2--2-2-2-2-2-2-2--0-0-|
--2----2--2-2-2-2-2-2-2--0-0-|--2--2-2-2--2-2-2-2-2-2-2------|
--2----2------2-------2------|--0------0------0-------0--2-2-|
--0----0------0-------0------|-------------------------------|


  E  S S E  S S S S S S E  S S    E  E  S S S S E  E  S S S S                 
--0--0-0-0--0-0-0-0-0-0-0------|--3--3--3-3-3-3---------------|----|----|----|
--1--1-1-1--1-1-1-1-1-1-1--0-0-|--3--3--3-3-3-3-3--3--3-3-3-0-|----|----|----|
--0--0-0-0--0-0-0-0-0-0-0--0-0-|--0--0--0-0-0-0-2--2--2-2-2-0-|----|----|----|
--2--2-2-2--2-2-2-2-2-2-2------|--0--0--0-0-0-0-0--0--0-0-0-0-|----|----|----|
--3------3------3-------3--2-2-|--2--2--2-2-2-2-------------0-|----|----|----|
-------------------------------|--3-----3---------------------|----|----|----|


                 Q.     E  Q    Q       W                   W                  
----|----|----|----------------------|--0----------------|--0----------------||
----|----|----|--3---------3----3----|--0----------------|--0----------------||
----|----|----|--0---------0----0----|--0----------------|--0----------------||
----|----|----|--2---------0----0----|--2----------------|--2----------------||
----|----|----|--3---------2----2----|--2----------------|--2----------------||
----|----|----|-----------------3----|--0----------------|--0----------------||




============================================================
============================================================
============================================================

                              God of 42nd Street                                


                                                                     Saigon Kick
Guitar - acoustic 2



     Q    E  S S S S S S E  S S    E  S S E  S S S S S S E  S S  
E||--0----0--0-0-0-0-0-0-0------|--0--0-0-0--0-0-0-0-0-0-0------|
B||--0----0--0-0-0-0-0-0-0--0-0-|--0--0-0-0--0-0-0-0-0-0-0--0-0-|
G||--0----0--0-0-0-0-0-0-0--0-0-|--2--2-2-2--2-2-2-2-2-2-2--0-0-|
D||--2----2--2-2-2-2-2-2-2--0-0-|--2--2-2-2--2-2-2-2-2-2-2------|
A||--2----2------2-------2------|--0------0------0-------0--2-2-|
E||--0----0------0-------0------|-------------------------------|


  E  S S E  S S S S S S E  S S    E  E  S S S S E  E  S S S S  
--0--0-0-0--0-0-0-0-0-0-0------|--3--3--3-3-3-3---------------|
--1--1-1-1--1-1-1-1-1-1-1--0-0-|--3--3--3-3-3-3-3--3--3-3-3-0-|
--0--0-0-0--0-0-0-0-0-0-0--0-0-|--0--0--0-0-0-0-2--2--2-2-2-0-|
--2--2-2-2--2-2-2-2-2-2-2------|--0--0--0-0-0-0-0--0--0-0-0-0-|
--3------3------3-------3--2-2-|--2--2--2-2-2-2-------------0-|
-------------------------------|--3-----3---------------------|


  Q    E  S S S S S S E  S S    E  S S E  S S S S S S E  S S  
--0----0--0-0-0-0-0-0-0------|--0--0-0-0--0-0-0-0-0-0-0------|
--0----0--0-0-0-0-0-0-0--0-0-|--0--0-0-0--0-0-0-0-0-0-0--0-0-|
--0----0--0-0-0-0-0-0-0--0-0-|--2--2-2-2--2-2-2-2-2-2-2--0-0-|
--2----2--2-2-2-2-2-2-2--0-0-|--2--2-2-2--2-2-2-2-2-2-2------|
--2----2------2-------2------|--0------0------0-------0--2-2-|
--0----0------0-------0------|-------------------------------|


  E  S S E  S S S S S S E  S S    E  E  S S S S E  E  S S S S  
--0--0-0-0--0-0-0-0-0-0-0------|--3--3--3-3-3-3---------------|
--1--1-1-1--1-1-1-1-1-1-1--0-0-|--3--3--3-3-3-3-3--3--3-3-3-0-|
--0--0-0-0--0-0-0-0-0-0-0--0-0-|--0--0--0-0-0-0-2--2--2-2-2-0-|
--2--2-2-2--2-2-2-2-2-2-2------|--0--0--0-0-0-0-0--0--0-0-0-0-|
--3------3------3-------3--2-2-|--2--2--2-2-2-2-------------0-|
-------------------------------|--3-----3---------------------|


  Q    E  S S S S S S E  S S    E  S S E  S S S S S S E  S S  
--0----0--0-0-0-0-0-0-0------|--0--0-0-0--0-0-0-0-0-0-0------|
--0----0--0-0-0-0-0-0-0--0-0-|--0--0-0-0--0-0-0-0-0-0-0--0-0-|
--0----0--0-0-0-0-0-0-0--0-0-|--2--2-2-2--2-2-2-2-2-2-2--0-0-|
--2----2--2-2-2-2-2-2-2--0-0-|--2--2-2-2--2-2-2-2-2-2-2------|
--2----2------2-------2------|--0------0------0-------0--2-2-|
--0----0------0-------0------|-------------------------------|


  E  S S E  S S S S S S E  S S    E  E  S S S S E  E  S S S S  
--0--0-0-0--0-0-0-0-0-0-0------|--3--3--3-3-3-3---------------|
--1--1-1-1--1-1-1-1-1-1-1--0-0-|--3--3--3-3-3-3-3--3--3-3-3-0-|
--0--0-0-0--0-0-0-0-0-0-0--0-0-|--0--0--0-0-0-0-2--2--2-2-2-0-|
--2--2-2-2--2-2-2-2-2-2-2------|--0--0--0-0-0-0-0--0--0-0-0-0-|
--3------3------3-------3--2-2-|--2--2--2-2-2-2-------------0-|
-------------------------------|--3-----3---------------------|


  Q    E  S S S S S S E  S S    E  S S E  S S S S S S E  S S  
--0----0--0-0-0-0-0-0-0------|--0--0-0-0--0-0-0-0-0-0-0------|
--0----0--0-0-0-0-0-0-0--0-0-|--0--0-0-0--0-0-0-0-0-0-0--0-0-|
--0----0--0-0-0-0-0-0-0--0-0-|--2--2-2-2--2-2-2-2-2-2-2--0-0-|
--2----2--2-2-2-2-2-2-2--0-0-|--2--2-2-2--2-2-2-2-2-2-2------|
--2----2------2-------2------|--0------0------0-------0--2-2-|
--0----0------0-------0------|-------------------------------|


  E  S S E  S S S S S S E  S S    E  E  S S S S E  E  S S S S  
--0--0-0-0--0-0-0-0-0-0-0------|--3--3--3-3-3-3---------------|
--1--1-1-1--1-1-1-1-1-1-1--0-0-|--3--3--3-3-3-3-3--3--3-3-3-0-|
--0--0-0-0--0-0-0-0-0-0-0--0-0-|--0--0--0-0-0-0-2--2--2-2-2-0-|
--2--2-2-2--2-2-2-2-2-2-2------|--0--0--0-0-0-0-0--0--0-0-0-0-|
--3------3------3-------3--2-2-|--2--2--2-2-2-2-------------0-|
-------------------------------|--3-----3---------------------|


  W                   W                   W                   W                 
-------------------|-------------------|-------------------|-------------------|
-------------------|-------------------|-------------------|-------------------|
-------------------|-------------------|-------------------|-------------------|
-------------------|-------------------|-------------------|-------------------|
-------------------|-------------------|-------------------|-------------------|
-------------------|-------------------|-------------------|-------------------|


  W                   W                   E  S S S S S S E  S S E  S S  
-------------------|-------------------|-------------------------------|
-------------------|-------------------|---------3-1-------------------|
-------------------|-------------------|-------0-----0--------0------0-|
-------------------|-------------------|-----2---------2----0------0---|
-------------------|-------------------|--3--------------2-------------|
-------------------|-------------------|------------------------3------|


  W                   Q    E  S S S S S S E  S S  
--0----------------|--0----0--0-0-0-0-0-0-0------|
--0----------------|--0----0--0-0-0-0-0-0-0--0-0-|
--0----------------|--0----0--0-0-0-0-0-0-0--0-0-|
--2----------------|--2----2--2-2-2-2-2-2-2--0-0-|
--2----------------|--2----2------2-------2------|
--0----------------|--0----0------0-------0------|


  E  S S E  S S S S S S E  S S    E  S S E  S S S S S S E  S S  
--0--0-0-0--0-0-0-0-0-0-0------|--0--0-0-0--0-0-0-0-0-0-0------|
--0--0-0-0--0-0-0-0-0-0-0--0-0-|--1--1-1-1--1-1-1-1-1-1-1--0-0-|
--2--2-2-2--2-2-2-2-2-2-2--0-0-|--0--0-0-0--0-0-0-0-0-0-0--0-0-|
--2--2-2-2--2-2-2-2-2-2-2------|--2--2-2-2--2-2-2-2-2-2-2------|
--0------0------0-------0--2-2-|--3------3------3-------3--2-2-|
-------------------------------|-------------------------------|


  E  E  S S S S E  E  S S S S    Q    E  S S S S S S E  S S  
--3--3--3-3-3-3---------------|--0----0--0-0-0-0-0-0-0------|
--3--3--3-3-3-3-3--3--3-3-3-0-|--0----0--0-0-0-0-0-0-0--0-0-|
--0--0--0-0-0-0-2--2--2-2-2-0-|--0----0--0-0-0-0-0-0-0--0-0-|
--0--0--0-0-0-0-0--0--0-0-0-0-|--2----2--2-2-2-2-2-2-2--0-0-|
--2--2--2-2-2-2-------------0-|--2----2------2-------2------|
--3-----3---------------------|--0----0------0-------0------|


  E  S S E  S S S S S S E  S S    E  S S E  S S S S S S E  S S  
--0--0-0-0--0-0-0-0-0-0-0------|--0--0-0-0--0-0-0-0-0-0-0------|
--0--0-0-0--0-0-0-0-0-0-0--0-0-|--1--1-1-1--1-1-1-1-1-1-1--0-0-|
--2--2-2-2--2-2-2-2-2-2-2--0-0-|--0--0-0-0--0-0-0-0-0-0-0--0-0-|
--2--2-2-2--2-2-2-2-2-2-2------|--2--2-2-2--2-2-2-2-2-2-2------|
--0------0------0-------0--2-2-|--3------3------3-------3--2-2-|
-------------------------------|-------------------------------|


  E  E  S S S S E  E  S S S S    Q    E  S S S S S S E  S S  
--3--3--3-3-3-3---------------|--0----0--0-0-0-0-0-0-0------|
--3--3--3-3-3-3-3--3--3-3-3-0-|--0----0--0-0-0-0-0-0-0--0-0-|
--0--0--0-0-0-0-2--2--2-2-2-0-|--0----0--0-0-0-0-0-0-0--0-0-|
--0--0--0-0-0-0-0--0--0-0-0-0-|--2----2--2-2-2-2-2-2-2--0-0-|
--2--2--2-2-2-2-------------0-|--2----2------2-------2------|
--3-----3---------------------|--0----0------0-------0------|


  E  S S E  S S S S S S E  S S    E  S S E  S S S S S S E  S S  
--0--0-0-0--0-0-0-0-0-0-0------|--0--0-0-0--0-0-0-0-0-0-0------|
--0--0-0-0--0-0-0-0-0-0-0--0-0-|--1--1-1-1--1-1-1-1-1-1-1--0-0-|
--2--2-2-2--2-2-2-2-2-2-2--0-0-|--0--0-0-0--0-0-0-0-0-0-0--0-0-|
--2--2-2-2--2-2-2-2-2-2-2------|--2--2-2-2--2-2-2-2-2-2-2------|
--0------0------0-------0--2-2-|--3------3------3-------3--2-2-|
-------------------------------|-------------------------------|


  E  E  S S S S E  E  S S S S    W                   W                 
--3--3--3-3-3-3---------------|--0----------------|--0----------------|
--3--3--3-3-3-3-3--3--3-3-3-0-|--0----------------|--0----------------|
--0--0--0-0-0-0-2--2--2-2-2-0-|-------------------|-------------------|
--0--0--0-0-0-0-0--0--0-0-0-0-|--2----------------|--2----------------|
--2--2--2-2-2-2-------------0-|--2----------------|--2----------------|
--3-----3---------------------|--0----------------|--0----------------|


  W                   W                   W                   W                 
--0----------------|--0----------------|--0----------------|--0----------------|
--0----------------|--0----------------|--0----------------|--0----------------|
-------------------|-------------------|-------------------|-------------------|
--2----------------|--2----------------|--2----------------|--2----------------|
--2----------------|--2----------------|--2----------------|--2----------------|
--0----------------|--0----------------|--0----------------|--0----------------|


-------------------|-------|-------|-------|-------|-------|-------|-------|
-------------------|-------|-------|-------|-------|-------|-------|-------|
-------------------|-------|-------|-------|-------|-------|-------|-------|
-------------------|-------|-------|-------|-------|-------|-------|-------|
-------------------|-------|-------|-------|-------|-------|-------|-------|
-------------------|-------|-------|-------|-------|-------|-------|-------|


  Q    E  S S S S S S E  S S    E  S S E  S S S S S S E  S S  
--0----0--0-0-0-0-0-0-0------|--0--0-0-0--0-0-0-0-0-0-0------|
--0----0--0-0-0-0-0-0-0--0-0-|--0--0-0-0--0-0-0-0-0-0-0--0-0-|
--0----0--0-0-0-0-0-0-0--0-0-|--2--2-2-2--2-2-2-2-2-2-2--0-0-|
--2----2--2-2-2-2-2-2-2--0-0-|--2--2-2-2--2-2-2-2-2-2-2------|
--2----2------2-------2------|--0------0------0-------0--2-2-|
--0----0------0-------0------|-------------------------------|


  E  S S E  S S S S S S E  S S    E  E  S S S S E  E  S S S S  
--0--0-0-0--0-0-0-0-0-0-0------|--3--3--3-3-3-3---------------|
--1--1-1-1--1-1-1-1-1-1-1--0-0-|--3--3--3-3-3-3-3--3--3-3-3-0-|
--0--0-0-0--0-0-0-0-0-0-0--0-0-|--0--0--0-0-0-0-2--2--2-2-2-0-|
--2--2-2-2--2-2-2-2-2-2-2------|--0--0--0-0-0-0-0--0--0-0-0-0-|
--3------3------3-------3--2-2-|--2--2--2-2-2-2-------------0-|
-------------------------------|--3-----3---------------------|


  Q    E  S S S S S S E  S S    E  S S E  S S S S S S E  S S  
--0----0--0-0-0-0-0-0-0------|--0--0-0-0--0-0-0-0-0-0-0------|
--0----0--0-0-0-0-0-0-0--0-0-|--0--0-0-0--0-0-0-0-0-0-0--0-0-|
--0----0--0-0-0-0-0-0-0--0-0-|--2--2-2-2--2-2-2-2-2-2-2--0-0-|
--2----2--2-2-2-2-2-2-2--0-0-|--2--2-2-2--2-2-2-2-2-2-2------|
--2----2------2-------2------|--0------0------0-------0--2-2-|
--0----0------0-------0------|-------------------------------|


  E  S S E  S S S S S S E  S S    E  E  S S S S E  E  S S S S  
--0--0-0-0--0-0-0-0-0-0-0------|--3--3--3-3-3-3---------------|
--1--1-1-1--1-1-1-1-1-1-1--0-0-|--3--3--3-3-3-3-3--3--3-3-3-0-|
--0--0-0-0--0-0-0-0-0-0-0--0-0-|--0--0--0-0-0-0-2--2--2-2-2-0-|
--2--2-2-2--2-2-2-2-2-2-2------|--0--0--0-0-0-0-0--0--0-0-0-0-|
--3------3------3-------3--2-2-|--2--2--2-2-2-2-------------0-|
-------------------------------|--3-----3---------------------|


  W                   W                   W                   W                 
--0----------------|--0----------------|--0----------------|--0----------------|
--0----------------|--0----------------|--0----------------|--0----------------|
-------------------|-------------------|-------------------|-------------------|
--2----------------|--2----------------|--2----------------|--2----------------|
--2----------------|--2----------------|--2----------------|--2----------------|
--0----------------|--0----------------|--0----------------|--0----------------|


  W                   W                   E  S S S S S S E  S S E  S S  
--0----------------|--0----------------|-------------------------------|
--0----------------|--0----------------|---------3-1-------------------|
-------------------|-------------------|-------0-----0--------0------0-|
--2----------------|--2----------------|-----2---------2----0------0---|
--2----------------|--2----------------|--3--------------2-------------|
--0----------------|--0----------------|------------------------3------|


  W                   Q    E  S S S S S S E  S S  
--0----------------|--0----0--0-0-0-0-0-0-0------|
--0----------------|--0----0--0-0-0-0-0-0-0--0-0-|
--0----------------|--0----0--0-0-0-0-0-0-0--0-0-|
--2----------------|--2----2--2-2-2-2-2-2-2--0-0-|
--2----------------|--2----2------2-------2------|
--0----------------|--0----0------0-------0------|


  E  S S E  S S S S S S E  S S    E  S S E  S S S S S S E  S S  
--0--0-0-0--0-0-0-0-0-0-0------|--0--0-0-0--0-0-0-0-0-0-0------|
--0--0-0-0--0-0-0-0-0-0-0--0-0-|--1--1-1-1--1-1-1-1-1-1-1--0-0-|
--2--2-2-2--2-2-2-2-2-2-2--0-0-|--0--0-0-0--0-0-0-0-0-0-0--0-0-|
--2--2-2-2--2-2-2-2-2-2-2------|--2--2-2-2--2-2-2-2-2-2-2------|
--0------0------0-------0--2-2-|--3------3------3-------3--2-2-|
-------------------------------|-------------------------------|


  E  E  S S S S E  E  S S S S    Q    E  S S S S S S E  S S  
--3--3--3-3-3-3---------------|--0----0--0-0-0-0-0-0-0------|
--3--3--3-3-3-3-3--3--3-3-3-0-|--0----0--0-0-0-0-0-0-0--0-0-|
--0--0--0-0-0-0-2--2--2-2-2-0-|--0----0--0-0-0-0-0-0-0--0-0-|
--0--0--0-0-0-0-0--0--0-0-0-0-|--2----2--2-2-2-2-2-2-2--0-0-|
--2--2--2-2-2-2-------------0-|--2----2------2-------2------|
--3-----3---------------------|--0----0------0-------0------|


  E  S S E  S S S S S S E  S S    E  S S E  S S S S S S E  S S  
--0--0-0-0--0-0-0-0-0-0-0------|--0--0-0-0--0-0-0-0-0-0-0------|
--0--0-0-0--0-0-0-0-0-0-0--0-0-|--1--1-1-1--1-1-1-1-1-1-1--0-0-|
--2--2-2-2--2-2-2-2-2-2-2--0-0-|--0--0-0-0--0-0-0-0-0-0-0--0-0-|
--2--2-2-2--2-2-2-2-2-2-2------|--2--2-2-2--2-2-2-2-2-2-2------|
--0------0------0-------0--2-2-|--3------3------3-------3--2-2-|
-------------------------------|-------------------------------|


  E  E  S S S S E  E  S S S S    Q    E  S S S S S S E  S S  
--3--3--3-3-3-3---------------|--0----0--0-0-0-0-0-0-0------|
--3--3--3-3-3-3-3--3--3-3-3-0-|--0----0--0-0-0-0-0-0-0--0-0-|
--0--0--0-0-0-0-2--2--2-2-2-0-|--0----0--0-0-0-0-0-0-0--0-0-|
--0--0--0-0-0-0-0--0--0-0-0-0-|--2----2--2-2-2-2-2-2-2--0-0-|
--2--2--2-2-2-2-------------0-|--2----2------2-------2------|
--3-----3---------------------|--0----0------0-------0------|


  E  S S E  S S S S S S E  S S    E  S S E  S S S S S S E  S S  
--0--0-0-0--0-0-0-0-0-0-0------|--0--0-0-0--0-0-0-0-0-0-0------|
--0--0-0-0--0-0-0-0-0-0-0--0-0-|--1--1-1-1--1-1-1-1-1-1-1--0-0-|
--2--2-2-2--2-2-2-2-2-2-2--0-0-|--0--0-0-0--0-0-0-0-0-0-0--0-0-|
--2--2-2-2--2-2-2-2-2-2-2------|--2--2-2-2--2-2-2-2-2-2-2------|
--0------0------0-------0--2-2-|--3------3------3-------3--2-2-|
-------------------------------|-------------------------------|


  E  E  S S S S E  E  S S S S                                                  
--3--3--3-3-3-3---------------|-------|-------|-------|-------|-------|-------|
--3--3--3-3-3-3-3--3--3-3-3-0-|-------|-------|-------|-------|-------|-------|
--0--0--0-0-0-0-2--2--2-2-2-0-|-------|-------|-------|-------|-------|-------|
--0--0--0-0-0-0-0--0--0-0-0-0-|-------|-------|-------|-------|-------|-------|
--2--2--2-2-2-2-------------0-|-------|-------|-------|-------|-------|-------|
--3-----3---------------------|-------|-------|-------|-------|-------|-------|


  E  S S S S S S E  S S E  S S    W                   W                  
-------------------------------|--0----------------|--0----------------||
---------3-1-------------------|--0----------------|--0----------------||
-------0-----0--------0------0-|--0----------------|--0----------------||
-----2---------2----0------0---|--2----------------|--2----------------||
--3--------------2-------------|--2----------------|--2----------------||
------------------------3------|--0----------------|--0----------------||





============================================================
============================================================
============================================================


                              God of 42nd Street                                


                                                                     Saigon Kick
Guitar - lead




  W                   H        H             H         E   Q.       
-------------------|---------------------|-------------------------|
-------------------|---------------------|-------------------------|
-------------------|-----------2s--------|--12---------L--12b------|
-------------------|---------------------|-------------------------|
-------------------|---------------------|-------------------------|
-------------------|---------------------|-------------------------|


   H         H             H          H          
-----------------------|------------------------|
-----------------------|------------------------|
--12--------12b--------|--14b--------16b--------|
-----------------------|------------------------|
-----------------------|------------------------|
-----------------------|------------------------|


               |-----3----|      |-----3----|                                
   Q.      E   E      E   E      E   E      E      H          E     Q.       
-----------------------------------------------|----------------------------|
----------12--15pbr------15pbr------15pbr------|--18b---------Lpb--20b------|
--16------16---------16---------16---------16--|----------------------------|
-----------------------------------------------|----------------------------|
-----------------------------------------------|----------------------------|
-----------------------------------------------|----------------------------|


   H         H             H         H            H          H          
-----------------------|--19--------20--------|--20b--------22b--------|
--20--------20b--------|----------------------|------------------------|
-----------------------|----------------------|------------------------|
-----------------------|----------------------|------------------------|
-----------------------|----------------------|------------------------|
-----------------------|----------------------|------------------------|







Duration Legend
---------------
W - whole
H - half
Q - quarter
E - 8th
S - 16th
T - 32nd
X - 64th
. - note dotted
|-n-|  - n-tuplets


Tablature Legend
----------------
L - tied note
x - dead note
g - grace note
(n) - ghost note
> - accentuded note
NH - natural harmonic
AH - artificial harmonic
TH - tapped harmonic
SH - semi harmonic
PH - pitch harmonic
h - hammer on
p - pull off
b - bend
br - bendRelease
pb - preBend
pbr - preBendRelease
brb - bendReleaseBend
\n/ - tremolo bar dip
\n - tremolo bar dive
-/n - tremolo bar Release up
/n\ - tremolo bar inverted dip
/n - tremolo bar return
-\n - tremolo bar Release down
S - shift slide
s - legato slide
/ -  slide into from below or out of upwards
\ -  slide into from above or out of downwards
~ - vibrato
W - wide vibrato
tr - trill
TP - tremolo picking
T - tapping
S - slap
P - pop
< - fade in
^ - brush up
v - brush down


comments
We did not receive enough feedback on this tab! Please rate:
print report bad tab
1 2 3 4 5
I want to post or [tab]
guest
You may want to rate the tab now too:
select rating
Please do not post tabs as comments. Select "correction" instead!