Oops, an error
Loading. Please wait.

I Love You Tab

ver2
ver2

Whole song

More versions @911Tabs.com
765 views 9 this week
no commentswrite comment
1 2 3 4 5
please rate
Autoscroll
+/-
esc
set tempo
stop
Contributor
Difficulty
novice
WARNING: You are trying to view
                                    content from Ultimate-Guitar.com
                                    in an unauthorized application,
                                    which is prohibited.

                                    Please use an official Ultimate
                                    Guitar Tabs application for iPhone,
                                    iPad or Android to access legitimate
                                    chords, guitar, bass, and drum tabs
                                    from Ultimate-Guitar.com database.

                                    Type "ultimate guitar tabs" in Apple
                                    App Store's or Android Market's
                                    search to find the application.

-----------------------------------------------------------------------------
                  I Love You - Saigon Kick (GUITAR)
                       
-----------------------------------------------------------------------------
Tabbed by: Scotto10

Tuning: Standard

=============================================================================
                                 


Keyboard adapted for guitar. This figure is played throughout the entire song.



     E   E   E   Q     E   E   E      Q     E   Q.      Q     
E||-------------12----------------|--------------------------|
B||-----12--14--------16--14--12--|--14----16--12-------L----|
G||-------------------------------|--------------------------|
D||-------------------------------|--------------------------|
A||-------------------------------|--------------------------|
E||-------------------------------|--------------------------|




Guitar



     B                                  B                                
     S S S S S S S S S S S S S S S S    S S S S S S S S S S S S S S S S  
E||--7-7-7-7---7---7---7---7---7-7-7-|--7-7-7-7---7---7---7---7---7-7---|
B||--7-7-7-7---7---7---7---7---7-7-7-|--7-7-7-7---7---7---7---7---7-7---|
G||--8-8-8-8---8---8---8---8-8-8-8-8-|--8-8-8-8---8---8---8---8-8-8-8---|
D||--9-9-9-9---9---9---9---9-9-9-9-9-|--9-9-9-9---9---9---9---9-9-9-9---|
A||----------------------------------|----------------------------------|
E||----------------------------------|----------------------------------|


  B6                                  B6                                
  S  S S S S S S S S S S S S S S S    S  S S S S S S S S S S S S S S S  
--7--7-7-7---7---7---7---7---7-7---|--7--7-7-7---7---7---7---7---7-7---|
--9--9-9-9---9---9---9---9---9-9---|--9--9-9-9---9---9---9---9---9-9---|
--8--8-8-8---8---8---8---8-8-8-8-8-|--8--8-8-8---8---8---8---8-8-8-8-8-|
--9--9-9-9---9---9---9---9-9-9-9-9-|--9--9-9-9---9---9---9---9-9-9-9-9-|
-----------------------------------|-----------------------------------|
-----------------------------------|-----------------------------------|


  B                                  B                                
  S S S S S S S S S S S S S S S S    S S S S S S S S S S S S S S S S  
--7-7-7-7---7---7---7---7---7-7-7-|--7-7-7-7---7---7---7---7---7-7-7-|
--7-7-7-7---7---7---7---7---7-7-7-|--7-7-7-7---7---7---7---7---7-7-7-|
--8-8-8-8---8---8---8---8-8-8-8-8-|--8-8-8-8---8---8---8---8-8-8-8-8-|
--9-9-9-9---9---9---9---9-9-9-9-9-|--9-9-9-9---9---9---9---9-9-9-9-9-|
----------------------------------|----------------------------------|
----------------------------------|----------------------------------|


  Bsus4                                  Bsus4                                
  S     S S S S S S S S S S S S S S S    S     S S S S S S S S S S S S S S S  
--7-----7-7-7---7---7---7---7-7-7-7---|--7-----7-7-7---7---7---7---7-7-7-7---|
--------------------------------------|--------------------------------------|
--9-----9-9-9---9---9---9---9-9-9-9-9-|--9-----9-9-9---9---9---9---9-9-9-9-9-|
--9-----9-9-9---9---9---9---9-9-9-9-9-|--9-----9-9-9---9---9---9---9-9-9-9-9-|
--------------------------------------|--------------------------------------|
--------------------------------------|--------------------------------------|


  B                                  B                                
  S S S S S S S S S S S S S S S S    S S S S S S S S S S S S S S S S  
--7-7-7-7---7---7---7---7---7-7-7-|--7-7-7-7---7---7---7---7---7-7---|
--7-7-7-7---7---7---7---7---7-7-7-|--7-7-7-7---7---7---7---7---7-7---|
--8-8-8-8---8---8---8---8-8-8-8-8-|--8-8-8-8---8---8---8---8-8-8-8---|
--9-9-9-9---9---9---9---9-9-9-9-9-|--9-9-9-9---9---9---9---9-9-9-9---|
----------------------------------|----------------------------------|
----------------------------------|----------------------------------|


  B6                                  B6                                
  S  S S S S S S S S S S S S S S S    S  S S S S S S S S S S S S S S S  
--7--7-7-7---7---7---7---7---7-7---|--7--7-7-7---7---7---7---7---7-7---|
--9--9-9-9---9---9---9---9---9-9---|--9--9-9-9---9---9---9---9---9-9---|
--8--8-8-8---8---8---8---8-8-8-8-8-|--8--8-8-8---8---8---8---8-8-8-8-8-|
--9--9-9-9---9---9---9---9-9-9-9-9-|--9--9-9-9---9---9---9---9-9-9-9-9-|
-----------------------------------|-----------------------------------|
-----------------------------------|-----------------------------------|


  B                                  B                                
  S S S S S S S S S S S S S S S S    S S S S S S S S S S S S S S S S  
--7-7-7-7---7---7---7---7---7-7-7-|--7-7-7-7---7---7---7---7---7-7-7-|
--7-7-7-7---7---7---7---7---7-7-7-|--7-7-7-7---7---7---7---7---7-7-7-|
--8-8-8-8---8---8---8---8-8-8-8-8-|--8-8-8-8---8---8---8---8-8-8-8-8-|
--9-9-9-9---9---9---9---9-9-9-9-9-|--9-9-9-9---9---9---9---9-9-9-9-9-|
----------------------------------|----------------------------------|
----------------------------------|----------------------------------|


  Bsus4                                  Bsus4                                
  S     S S S S S S S S S S S S S S S    S     S S S S S S S S S S S S S S S  
--7-----7-7-7---7---7---7---7-7-7-7---|--7-----7-7-7---7---7---7---7-7-7-7---|
--------------------------------------|--------------------------------------|
--9-----9-9-9---9---9---9---9-9-9-9-9-|--9-----9-9-9---9---9---9---9-9-9-9-9-|
--9-----9-9-9---9---9---9---9-9-9-9-9-|--9-----9-9-9---9---9---9---9-9-9-9-9-|
--------------------------------------|--------------------------------------|
--------------------------------------|--------------------------------------|


  B                                  B                                
  S S S S S S S S S S S S S S S S    S S S S S S S S S S S S S S S S  
--7-7-7-7---7---7---7---7---7-7-7-|--7-7-7-7---7---7---7---7---7-7---|
--7-7-7-7---7---7---7---7---7-7-7-|--7-7-7-7---7---7---7---7---7-7---|
--8-8-8-8---8---8---8---8-8-8-8-8-|--8-8-8-8---8---8---8---8-8-8-8---|
--9-9-9-9---9---9---9---9-9-9-9-9-|--9-9-9-9---9---9---9---9-9-9-9---|
----------------------------------|----------------------------------|
----------------------------------|----------------------------------|


  B6                                  B6                                
  S  S S S S S S S S S S S S S S S    S  S S S S S S S S S S S S S S S  
--7--7-7-7---7---7---7---7---7-7---|--7--7-7-7---7---7---7---7---7-7---|
--9--9-9-9---9---9---9---9---9-9---|--9--9-9-9---9---9---9---9---9-9---|
--8--8-8-8---8---8---8---8-8-8-8-8-|--8--8-8-8---8---8---8---8-8-8-8-8-|
--9--9-9-9---9---9---9---9-9-9-9-9-|--9--9-9-9---9---9---9---9-9-9-9-9-|
-----------------------------------|-----------------------------------|
-----------------------------------|-----------------------------------|


  B                                  B                                
  S S S S S S S S S S S S S S S S    S S S S S S S S S S S S S S S S  
--7-7-7-7---7---7---7---7---7-7-7-|--7-7-7-7---7---7---7---7---7-7-7-|
--7-7-7-7---7---7---7---7---7-7-7-|--7-7-7-7---7---7---7---7---7-7-7-|
--8-8-8-8---8---8---8---8-8-8-8-8-|--8-8-8-8---8---8---8---8-8-8-8-8-|
--9-9-9-9---9---9---9---9-9-9-9-9-|--9-9-9-9---9---9---9---9-9-9-9-9-|
----------------------------------|----------------------------------|
----------------------------------|----------------------------------|


  Bsus4                                  Bsus4                                
  S     S S S S S S S S S S S S S S S    S     S S S S S S S S S S S S S S S  
--7-----7-7-7---7---7---7---7-7-7-7---|--7-----7-7-7---7---7---7---7-7-7-7---|
--------------------------------------|--------------------------------------|
--9-----9-9-9---9---9---9---9-9-9-9-9-|--9-----9-9-9---9---9---9---9-9-9-9-9-|
--9-----9-9-9---9---9---9---9-9-9-9-9-|--9-----9-9-9---9---9---9---9-9-9-9-9-|
--------------------------------------|--------------------------------------|
--------------------------------------|--------------------------------------|


  B                                  B                                
  S S S S S S S S S S S S S S S S    S S S S S S S S S S S S S S S S  
--7-7-7-7---7---7---7---7---7-7-7-|--7-7-7-7---7---7---7---7---7-7---|
--7-7-7-7---7---7---7---7---7-7-7-|--7-7-7-7---7---7---7---7---7-7---|
--8-8-8-8---8---8---8---8-8-8-8-8-|--8-8-8-8---8---8---8---8-8-8-8---|
--9-9-9-9---9---9---9---9-9-9-9-9-|--9-9-9-9---9---9---9---9-9-9-9---|
----------------------------------|----------------------------------|
----------------------------------|----------------------------------|


  B6                                  B6                                
  S  S S S S S S S S S S S S S S S    S  S S S S S S S S S S S S S S S  
--7--7-7-7---7---7---7---7---7-7---|--7--7-7-7---7---7---7---7---7-7---|
--9--9-9-9---9---9---9---9---9-9---|--9--9-9-9---9---9---9---9---9-9---|
--8--8-8-8---8---8---8---8-8-8-8-8-|--8--8-8-8---8---8---8---8-8-8-8-8-|
--9--9-9-9---9---9---9---9-9-9-9-9-|--9--9-9-9---9---9---9---9-9-9-9-9-|
-----------------------------------|-----------------------------------|
-----------------------------------|-----------------------------------|


  B                                  B                                
  S S S S S S S S S S S S S S S S    S S S S S S S S S S S S S S S S  
--7-7-7-7---7---7---7---7---7-7-7-|--7-7-7-7---7---7---7---7---7-7-7-|
--7-7-7-7---7---7---7---7---7-7-7-|--7-7-7-7---7---7---7---7---7-7-7-|
--8-8-8-8---8---8---8---8-8-8-8-8-|--8-8-8-8---8---8---8---8-8-8-8-8-|
--9-9-9-9---9---9---9---9-9-9-9-9-|--9-9-9-9---9---9---9---9-9-9-9-9-|
----------------------------------|----------------------------------|
----------------------------------|----------------------------------|


  Bsus4                                  Bsus4                                
  S     S S S S S S S S S S S S S S S    S     S S S S S S S S S S S S S S S  
--7-----7-7-7---7---7---7---7-7-7-7---|--7-----7-7-7---7---7---7---7-7-7-7---|
--------------------------------------|--------------------------------------|
--9-----9-9-9---9---9---9---9-9-9-9-9-|--9-----9-9-9---9---9---9---9-9-9-9-9-|
--9-----9-9-9---9---9---9---9-9-9-9-9-|--9-----9-9-9---9---9---9---9-9-9-9-9-|
--------------------------------------|--------------------------------------|
--------------------------------------|--------------------------------------|


                  B                                
                  S S S S S S S S S S S S S S S S  
-------|-------|--7-7-7-7---7---7---7---7---7-7-7-|
-------|-------|--7-7-7-7---7---7---7---7---7-7-7-|
-------|-------|--8-8-8-8---8---8---8---8-8-8-8-8-|
-------|-------|--9-9-9-9---9---9---9---9-9-9-9-9-|
-------|-------|----------------------------------|
-------|-------|----------------------------------|


  B                                  B6                                
  S S S S S S S S S S S S S S S S    S  S S S S S S S S S S S S S S S  
--7-7-7-7---7---7---7---7---7-7---|--7--7-7-7---7---7---7---7---7-7---|
--7-7-7-7---7---7---7---7---7-7---|--9--9-9-9---9---9---9---9---9-9---|
--8-8-8-8---8---8---8---8-8-8-8---|--8--8-8-8---8---8---8---8-8-8-8-8-|
--9-9-9-9---9---9---9---9-9-9-9---|--9--9-9-9---9---9---9---9-9-9-9-9-|
----------------------------------|-----------------------------------|
----------------------------------|-----------------------------------|


  B6                                  B                                
  S  S S S S S S S S S S S S S S S    S S S S S S S S S S S S S S S S  
--7--7-7-7---7---7---7---7---7-7---|--7-7-7-7---7---7---7---7---7-7-7-|
--9--9-9-9---9---9---9---9---9-9---|--7-7-7-7---7---7---7---7---7-7-7-|
--8--8-8-8---8---8---8---8-8-8-8-8-|--8-8-8-8---8---8---8---8-8-8-8-8-|
--9--9-9-9---9---9---9---9-9-9-9-9-|--9-9-9-9---9---9---9---9-9-9-9-9-|
-----------------------------------|----------------------------------|
-----------------------------------|----------------------------------|


  B                                  Bsus4                                
  S S S S S S S S S S S S S S S S    S     S S S S S S S S S S S S S S S  
--7-7-7-7---7---7---7---7---7-7-7-|--7-----7-7-7---7---7---7---7-7-7-7---|
--7-7-7-7---7---7---7---7---7-7-7-|--------------------------------------|
--8-8-8-8---8---8---8---8-8-8-8-8-|--9-----9-9-9---9---9---9---9-9-9-9-9-|
--9-9-9-9---9---9---9---9-9-9-9-9-|--9-----9-9-9---9---9---9---9-9-9-9-9-|
----------------------------------|--------------------------------------|
----------------------------------|--------------------------------------|


  Bsus4                                  B                                
  S     S S S S S S S S S S S S S S S    S S S S S S S S S S S S S S S S  
--7-----7-7-7---7---7---7---7-7-7-7---|--7-7-7-7---7---7---7---7---7-7-7-|
--------------------------------------|--7-7-7-7---7---7---7---7---7-7-7-|
--9-----9-9-9---9---9---9---9-9-9-9-9-|--8-8-8-8---8---8---8---8-8-8-8-8-|
--9-----9-9-9---9---9---9---9-9-9-9-9-|--9-9-9-9---9---9---9---9-9-9-9-9-|
--------------------------------------|----------------------------------|
--------------------------------------|----------------------------------|


  B                                  B6                                
  S S S S S S S S S S S S S S S S    S  S S S S S S S S S S S S S S S  
--7-7-7-7---7---7---7---7---7-7---|--7--7-7-7---7---7---7---7---7-7---|
--7-7-7-7---7---7---7---7---7-7---|--9--9-9-9---9---9---9---9---9-9---|
--8-8-8-8---8---8---8---8-8-8-8---|--8--8-8-8---8---8---8---8-8-8-8-8-|
--9-9-9-9---9---9---9---9-9-9-9---|--9--9-9-9---9---9---9---9-9-9-9-9-|
----------------------------------|-----------------------------------|
----------------------------------|-----------------------------------|


  B6                                  B                                
  S  S S S S S S S S S S S S S S S    S S S S S S S S S S S S S S S S  
--7--7-7-7---7---7---7---7---7-7---|--7-7-7-7---7---7---7---7---7-7-7-|
--9--9-9-9---9---9---9---9---9-9---|--7-7-7-7---7---7---7---7---7-7-7-|
--8--8-8-8---8---8---8---8-8-8-8-8-|--8-8-8-8---8---8---8---8-8-8-8-8-|
--9--9-9-9---9---9---9---9-9-9-9-9-|--9-9-9-9---9---9---9---9-9-9-9-9-|
-----------------------------------|----------------------------------|
-----------------------------------|----------------------------------|


  B                                  Bsus4                                
  S S S S S S S S S S S S S S S S    S     S S S S S S S S S S S S S S S  
--7-7-7-7---7---7---7---7---7-7-7-|--7-----7-7-7---7---7---7---7-7-7-7---|
--7-7-7-7---7---7---7---7---7-7-7-|--------------------------------------|
--8-8-8-8---8---8---8---8-8-8-8-8-|--9-----9-9-9---9---9---9---9-9-9-9-9-|
--9-9-9-9---9---9---9---9-9-9-9-9-|--9-----9-9-9---9---9---9---9-9-9-9-9-|
----------------------------------|--------------------------------------|
----------------------------------|--------------------------------------|


  Bsus4                                  B                                
  S     S S S S S S S S S S S S S S S    S S S S S S S S S S S S S S S S  
--7-----7-7-7---7---7---7---7-7-7-7---|--7-7-7-7---7---7---7---7---7-7-7-|
--------------------------------------|--7-7-7-7---7---7---7---7---7-7-7-|
--9-----9-9-9---9---9---9---9-9-9-9-9-|--8-8-8-8---8---8---8---8-8-8-8-8-|
--9-----9-9-9---9---9---9---9-9-9-9-9-|--9-9-9-9---9---9---9---9-9-9-9-9-|
--------------------------------------|----------------------------------|
--------------------------------------|----------------------------------|


  B                                  B6                                
  S S S S S S S S S S S S S S S S    S  S S S S S S S S S S S S S S S  
--7-7-7-7---7---7---7---7---7-7---|--7--7-7-7---7---7---7---7---7-7---|
--7-7-7-7---7---7---7---7---7-7---|--9--9-9-9---9---9---9---9---9-9---|
--8-8-8-8---8---8---8---8-8-8-8---|--8--8-8-8---8---8---8---8-8-8-8-8-|
--9-9-9-9---9---9---9---9-9-9-9---|--9--9-9-9---9---9---9---9-9-9-9-9-|
----------------------------------|-----------------------------------|
----------------------------------|-----------------------------------|


  B6                                  B                                
  S  S S S S S S S S S S S S S S S    S S S S S S S S S S S S S S S S  
--7--7-7-7---7---7---7---7---7-7---|--7-7-7-7---7---7---7---7---7-7-7-|
--9--9-9-9---9---9---9---9---9-9---|--7-7-7-7---7---7---7---7---7-7-7-|
--8--8-8-8---8---8---8---8-8-8-8-8-|--8-8-8-8---8---8---8---8-8-8-8-8-|
--9--9-9-9---9---9---9---9-9-9-9-9-|--9-9-9-9---9---9---9---9-9-9-9-9-|
-----------------------------------|----------------------------------|
-----------------------------------|----------------------------------|


  B                                  Bsus4                                
  S S S S S S S S S S S S S S S S    S     S S S S S S S S S S S S S S S  
--7-7-7-7---7---7---7---7---7-7-7-|--7-----7-7-7---7---7---7---7-7-7-7---|
--7-7-7-7---7---7---7---7---7-7-7-|--------------------------------------|
--8-8-8-8---8---8---8---8-8-8-8-8-|--9-----9-9-9---9---9---9---9-9-9-9-9-|
--9-9-9-9---9---9---9---9-9-9-9-9-|--9-----9-9-9---9---9---9---9-9-9-9-9-|
----------------------------------|--------------------------------------|
----------------------------------|--------------------------------------|


  Bsus4                                  B                                
  S     S S S S S S S S S S S S S S S    S S S S S S S S S S S S S S S S  
--7-----7-7-7---7---7---7---7-7-7-7---|--7-7-7-7---7---7---7---7---7-7-7-|
--------------------------------------|--7-7-7-7---7---7---7---7---7-7-7-|
--9-----9-9-9---9---9---9---9-9-9-9-9-|--8-8-8-8---8---8---8---8-8-8-8-8-|
--9-----9-9-9---9---9---9---9-9-9-9-9-|--9-9-9-9---9---9---9---9-9-9-9-9-|
--------------------------------------|----------------------------------|
--------------------------------------|----------------------------------|


  B                                  B6                                
  S S S S S S S S S S S S S S S S    S  S S S S S S S S S S S S S S S  
--7-7-7-7---7---7---7---7---7-7---|--7--7-7-7---7---7---7---7---7-7---|
--7-7-7-7---7---7---7---7---7-7---|--9--9-9-9---9---9---9---9---9-9---|
--8-8-8-8---8---8---8---8-8-8-8---|--8--8-8-8---8---8---8---8-8-8-8-8-|
--9-9-9-9---9---9---9---9-9-9-9---|--9--9-9-9---9---9---9---9-9-9-9-9-|
----------------------------------|-----------------------------------|
----------------------------------|-----------------------------------|


  B6                                  B                                
  S  S S S S S S S S S S S S S S S    S S S S S S S S S S S S S S S S  
--7--7-7-7---7---7---7---7---7-7---|--7-7-7-7---7---7---7---7---7-7-7-|
--9--9-9-9---9---9---9---9---9-9---|--7-7-7-7---7---7---7---7---7-7-7-|
--8--8-8-8---8---8---8---8-8-8-8-8-|--8-8-8-8---8---8---8---8-8-8-8-8-|
--9--9-9-9---9---9---9---9-9-9-9-9-|--9-9-9-9---9---9---9---9-9-9-9-9-|
-----------------------------------|----------------------------------|
-----------------------------------|----------------------------------|


  B                                  Bsus4                                
  S S S S S S S S S S S S S S S S    S     S S S S S S S S S S S S S S S  
--7-7-7-7---7---7---7---7---7-7-7-|--7-----7-7-7---7---7---7---7-7-7-7---|
--7-7-7-7---7---7---7---7---7-7-7-|--------------------------------------|
--8-8-8-8---8---8---8---8-8-8-8-8-|--9-----9-9-9---9---9---9---9-9-9-9-9-|
--9-9-9-9---9---9---9---9-9-9-9-9-|--9-----9-9-9---9---9---9---9-9-9-9-9-|
----------------------------------|--------------------------------------|
----------------------------------|--------------------------------------|


  Bsus4                                  B                                
  S     S S S S S S S S S S S S S S S    S S S S S S S S S S S S S S S S  
--7-----7-7-7---7---7---7---7-7-7-7---|--7-7-7-7---7---7---7---7---7-7-7-|
--------------------------------------|--7-7-7-7---7---7---7---7---7-7-7-|
--9-----9-9-9---9---9---9---9-9-9-9-9-|--8-8-8-8---8---8---8---8-8-8-8-8-|
--9-----9-9-9---9---9---9---9-9-9-9-9-|--9-9-9-9---9---9---9---9-9-9-9-9-|
--------------------------------------|----------------------------------|
--------------------------------------|----------------------------------|


  B                                  B6                                
  S S S S S S S S S S S S S S S S    S  S S S S S S S S S S S S S S S  
--7-7-7-7---7---7---7---7---7-7---|--7--7-7-7---7---7---7---7---7-7---|
--7-7-7-7---7---7---7---7---7-7---|--9--9-9-9---9---9---9---9---9-9---|
--8-8-8-8---8---8---8---8-8-8-8---|--8--8-8-8---8---8---8---8-8-8-8-8-|
--9-9-9-9---9---9---9---9-9-9-9---|--9--9-9-9---9---9---9---9-9-9-9-9-|
----------------------------------|-----------------------------------|
----------------------------------|-----------------------------------|


  B6                                  B                                
  S  S S S S S S S S S S S S S S S    S S S S S S S S S S S S S S S S  
--7--7-7-7---7---7---7---7---7-7---|--7-7-7-7---7---7---7---7---7-7-7-|
--9--9-9-9---9---9---9---9---9-9---|--7-7-7-7---7---7---7---7---7-7-7-|
--8--8-8-8---8---8---8---8-8-8-8-8-|--8-8-8-8---8---8---8---8-8-8-8-8-|
--9--9-9-9---9---9---9---9-9-9-9-9-|--9-9-9-9---9---9---9---9-9-9-9-9-|
-----------------------------------|----------------------------------|
-----------------------------------|----------------------------------|


  B                                  Bsus4                                
  S S S S S S S S S S S S S S S S    S     S S S S S S S S S S S S S S S  
--7-7-7-7---7---7---7---7---7-7-7-|--7-----7-7-7---7---7---7---7-7-7-7---|
--7-7-7-7---7---7---7---7---7-7-7-|--------------------------------------|
--8-8-8-8---8---8---8---8-8-8-8-8-|--9-----9-9-9---9---9---9---9-9-9-9-9-|
--9-9-9-9---9---9---9---9-9-9-9-9-|--9-----9-9-9---9---9---9---9-9-9-9-9-|
----------------------------------|--------------------------------------|
----------------------------------|--------------------------------------|


  Bsus4                                 
  S     S S S S S S S S S S S S S S S   
--7-----7-7-7---7---7---7---7-7-7-7---||
--------------------------------------||
--9-----9-9-9---9---9---9---9-9-9-9-9-||
--9-----9-9-9---9---9---9---9-9-9-9-9-||
--------------------------------------||
--------------------------------------||





==================================================================
==================================================================
==================================================================


Guitar 2 - the rhythm under the solo and outro. Its just power chords

     W                   W                   W                 
-------|-------------------|-------------------|-------------------|
-------|-------------------|-------------------|-------------------|
-------|-------------------|-------------------|-------------------|
-------|--9----------------|--L----------------|--6----------------|
-------|--9----------------|--L----------------|--6----------------|
-------|--7----------------|--L----------------|--4----------------|


  W                   W                   W                   W                 
-------------------|-------------------|-------------------|-------------------|
-------------------|-------------------|-------------------|-------------------|
-------------------|-------------------|-------------------|-------------------|
--L----------------|--4----------------|--L----------------|--2----------------|
--L----------------|--4----------------|--L----------------|--2----------------|
--L----------------|--2----------------|--L----------------|--0----------------|


  W                   W                   W                   W                 
-------------------|-------------------|-------------------|-------------------|
-------------------|-------------------|-------------------|-------------------|
-------------------|-------------------|-------------------|-------------------|
--L----------------|--9----------------|--L----------------|--6----------------|
--L----------------|--9----------------|--L----------------|--6----------------|
--L----------------|--7----------------|--L----------------|--4----------------|


  W                   W                   W                   W                 
-------------------|-------------------|-------------------|-------------------|
-------------------|-------------------|-------------------|-------------------|
-------------------|-------------------|-------------------|-------------------|
--L----------------|--4----------------|--L----------------|--2----------------|
--L----------------|--4----------------|--L----------------|--2----------------|
--L----------------|--2----------------|--L----------------|--0----------------|


  W                   W                   W                   W                 
-------------------|-------------------|-------------------|-------------------|
-------------------|-------------------|-------------------|-------------------|
-------------------|-------------------|-------------------|-------------------|
--L----------------|--9----------------|--L----------------|--6----------------|
--L----------------|--9----------------|--L----------------|--6----------------|
--L----------------|--7----------------|--L----------------|--4----------------|


  W                   W                   W                   W                 
-------------------|-------------------|-------------------|-------------------|
-------------------|-------------------|-------------------|-------------------|
-------------------|-------------------|-------------------|-------------------|
--L----------------|--4----------------|--L----------------|--2----------------|
--L----------------|--4----------------|--L----------------|--2----------------|
--L----------------|--2----------------|--L----------------|--0----------------|


  W                  
-------------------||
-------------------||
-------------------||
--L----------------||
--L----------------||
--L----------------||



==================================================================
==================================================================
==================================================================


Guitar solo 



  H         H            Q.     H        S  S    W                 
----------------------|-----------------------|-------------------|
----------------------|-----------------------|-------------------|
----------------------|------------------4h-6-|--4----------------|
----------------------|---------4-------------|-------------------|
----------------------|--2--------------------|-------------------|
-----------12\--------|-----------------------|-------------------|


  Q.     H        S   S    H        E   E   E   E   
------------------------|----------------------15--|
------------------9s-11-|--9--------L------12------|
---------8--------------|--------------11----------|
--6---------------------|--------------------------|
------------------------|--------------------------|
------------------------|--------------------------|


   E   E   E   Q     E   E   E      E   E   E   Q     E   S  S  S  S  
---L----------12------------11--|---L--12--11--------11--12-11----11-|
----------12------------12------|--------------15--------------15----|
------11------------11----------|------------------------------------|
--------------------------------|------------------------------------|
--------------------------------|------------------------------------|
--------------------------------|------------------------------------|


                   |-3-|                                   |---3--|  
   H         Q     S S S  S  S     Q      Q      Q     E   S  S   S  
----------------------------20-|--20b----20b----19--------16-----16-|
--12---------L\--------x-19----|----------------------19-----19b----|
---------------------x---------|------------------------------------|
-------------------x-----------|------------------------------------|
-------------------------------|------------------------------------|
-------------------------------|------------------------------------|


   S   S  Q      E    Q    S  S   S  S     Q      E    Q     E   E   E   
------16-19b----19b--19----------16-19-|--19b----19b--19----------------|
--19b------------------------19b-------|--------------------12--12--12--|
---------------------------------------|--------------------------------|
---------------------------------------|---------------------9---9---9--|
---------------------------------------|--------------------------------|
---------------------------------------|--------------------------------|


   Q     E   E  Q    Q        Q.      Q.      Q        W                 
---------------------------|-----------------------|--------------------|
--12----12--12-------------|-----------------------|--------------------|
---------------------4b----|--4b------4b------4----|--11----------------|
---9-----9---9-------------|-----------------------|--11----------------|
---------------------------|-----------------------|---9----------------|
---------------------------|-----------------------|--------------------|


   W                   W                   H        Q    Q       Q             
--------------------|-------------------|---------------------|-------|-------|
--------------------|-------------------|---------------------|-------|-------|
---L----------------|--9----------------|--9--------9---------|-------|-------|
---L----------------|--9----------------|--9--------9----9----|--4----|-------|
---L----------------|--7----------------|--7--------7----6----|--2----|-------|
--------------------|-------------------|---------------------|-------|-------|


-------|-------|-------|-------|-------|-------||
-------|-------|-------|-------|-------|-------||
-------|-------|-------|-------|-------|-------||
-------|-------|-------|-------|-------|-------||
-------|-------|-------|-------|-------|-------||
-------|-------|-------|-------|-------|-------||




Duration Legend
---------------
W - whole
H - half
Q - quarter
E - 8th
S - 16th
T - 32nd
X - 64th
. - note dotted
|-n-|  - n-tuplets


Tablature Legend
----------------
L - tied note
x - dead note
g - grace note
(n) - ghost note
> - accentuded note
NH - natural harmonic
AH - artificial harmonic
TH - tapped harmonic
SH - semi harmonic
PH - pitch harmonic
h - hammer on
p - pull off
b - bend
br - bendRelease
pb - preBend
pbr - preBendRelease
brb - bendReleaseBend
\n/ - tremolo bar dip
\n - tremolo bar dive
-/n - tremolo bar Release up
/n\ - tremolo bar inverted dip
/n - tremolo bar return
-\n - tremolo bar Release down
S - shift slide
s - legato slide
/ -  slide into from below or out of upwards
\ -  slide into from above or out of downwards
~ - vibrato
W - wide vibrato
tr - trill
TP - tremolo picking
T - tapping
S - slap
P - pop
< - fade in
^ - brush up
v - brush down
comments
We did not receive enough feedback on this tab! Please rate:
1 2 3 4 5
I want to post or [tab]
guest
You may want to rate the tab now too:
select rating
Please do not post tabs as comments. Select "correction" instead!