Oops, an error
Loading. Please wait.

Love Of God Tab

142 views 9 this week
no commentswrite comment
1 2 3 4 5
please rate
add to favorites launch autoscroll
font size
0
reset
Autoscroll
+/-
esc
set tempo
stop
Contributor
Difficulty
intermediate
WARNING: You are trying to view
                                    content from Ultimate-Guitar.com
                                    in an unauthorized application,
                                    which is prohibited.

                                    Please use an official Ultimate
                                    Guitar Tabs application for iPhone,
                                    iPad or Android to access legitimate
                                    chords, guitar, bass, and drum tabs
                                    from Ultimate-Guitar.com database.

                                    Type "ultimate guitar tabs" in Apple
                                    App Store's or Android Market's
                                    search to find the application.
-----------------------------------------------------------------------------
                   Love Of God - Saigon Kick (GUITAR)
                       
-----------------------------------------------------------------------------
Tabbed by: Scotto10

Tuning: Standard

=============================================================================

                                  

Guitar - rythym



                                     H.           E   E   
E||-------|-----------|-----------|----------------------|
B||-------|-----------|-----------|----------------------|
G||-------|-----------|-----------|------------------/9--|
D||-------|-----------|-----------|------------------/9--|
A||-------|-----------|-----------|----------------------|
E||-------|-----------|-----------|----------------------|


  E  E  E  S E  S E  E  S S    E  E  E  S E  S E  E  S S  
----------------------------|----------------------------|
----------------------------|----------------------------|
--9--8--9--8-9--9-8--9--9-8-|--9--8--9--8-9--9-8--9--9-8-|
--9--9--9--9-9--9-9--9--9-9-|--9--9--9--9-9--9-9--9--9-9-|
----------------------------|----------------------------|
----------------------------|----------------------------|


                                 |---3---|   |---3---|   |---3---|           
  E  E  E  S E  S E  E.    S     E   E   E   E   E   E   E   E   E   E  S S  
-----------------------------|----------------------------------------------|
-------------------------/12-|--12--12--12--12--12--12--12--12--12--12--x-x-|
--9--8--9--8-9--9-8--9---/11-|--11--11--11--11--11--11--11--11--11--11--x-x-|
--9--9--9--9-9--9-9--9-------|------------------------------------------x-x-|
-----------------------------|----------------------------------------------|
-----------------------------|----------------------------------------------|


  E  E  E  S E  S E  E  S S    E  E  E  S E  S E  E  S S  
----------------------------|----------------------------|
----------------------------|----------------------------|
--9--8--9--8-9--9-8--9--9-8-|--9--8--9--8-9--9-8--9--9-8-|
--9--9--9--9-9--9-9--9--9-9-|--9--9--9--9-9--9-9--9--9-9-|
----------------------------|----------------------------|
----------------------------|----------------------------|


                                 |---3---|   |---3---|   |---3---|           
  E  E  E  S E  S E  E.    S     E   E   E   E   E   E   E   E   E   E  S S  
-----------------------------|----------------------------------------------|
-------------------------/12-|--12--12--12--12--12--12--12--12--12--12--x-x-|
--9--8--9--8-9--9-8--9---/11-|--11--11--11--11--11--11--11--11--11--11--x-x-|
--9--9--9--9-9--9-9--9-------|------------------------------------------x-x-|
-----------------------------|----------------------------------------------|
-----------------------------|----------------------------------------------|


  E  E  E  S E  S E  E  S S    E  E  E  S E  S E  E  S S  
----------------------------|----------------------------|
----------------------------|----------------------------|
--4--2--4--2-4--4-2--4--4-2-|--4--2--4--2-4--4-2--4--4-2-|
----------------------------|----------------------------|
----------------------------|----------------------------|
----------------------------|----------------------------|


  E  E  E  S E  S E  E  S S    E  E  E  S E  S E  E  E   
----------------------------|---------------------------|
----------------------------|---------------------------|
--5--3--5--3-5--5-3--5--5-3-|--2--0--2--0-2--2-0--2--3--|
----------------------------|---------------------------|
----------------------------|---------------------------|
----------------------------|---------------------------|


  E  E  E  S E  S E  E  S S    E  E  E  S E  S E  E  S S  
----------------------------|----------------------------|
----------------------------|----------------------------|
--4--2--4--2-4--4-2--4--4-2-|--4--2--4--2-4--4-2--4--4-2-|
----------------------------|----------------------------|
----------------------------|----------------------------|
----------------------------|----------------------------|


  E  E  E  S E  S E  E  S S    E  E  E  S E  S E  E  E   
----------------------------|---------------------------|
----------------------------|---------------------------|
--5--3--5--3-5--5-3--5--5-3-|--2--0--2--0-2--2-0--2--3--|
----------------------------|---------------------------|
----------------------------|---------------------------|
----------------------------|---------------------------|


  E  E  E  S E  S E  E  S S    E  E  E  S E  S E  E  S S  
----------------------------|----------------------------|
----------------------------|----------------------------|
--4--2--4--2-4--4-2--4--4-2-|--4--2--4--2-4--4-2--4--4-2-|
----------------------------|----------------------------|
----------------------------|----------------------------|
----------------------------|----------------------------|


  E  E  E  S E  S E  E  S S    E  E  E  S E  S E  E  E   
----------------------------|---------------------------|
----------------------------|---------------------------|
--5--3--5--3-5--5-3--5--5-3-|--2--0--2--0-2--2-0--2--3--|
----------------------------|---------------------------|
----------------------------|---------------------------|
----------------------------|---------------------------|


  E  E  E  S E  S E  E  S S    E  E  E  S E  S E  E  S S  
----------------------------|----------------------------|
----------------------------|----------------------------|
--4--2--4--2-4--4-2--4--4-2-|--4--2--4--2-4--4-2--4--4-2-|
----------------------------|----------------------------|
----------------------------|----------------------------|
----------------------------|----------------------------|


  E  E  E  S E  S E  E  S S    H        Q    Q       E  E  E  S E  S E  E  S S  
----------------------------|---------------------|----------------------------|
----------------------------|---------------------|----------------------------|
--5--3--5--3-5--5-3--5--5-3-|--2--------2----2----|--9--8--9--8-9--9-8--9--9-8-|
----------------------------|--2--------2----2----|--9--9--9--9-9--9-9--9--9-9-|
----------------------------|--0--------0----0----|----------------------------|
----------------------------|---------------------|----------------------------|


  E  E  E  S E  S E  E  S S    E  E  E  S E  S E  E.    S  
----------------------------|-----------------------------|
----------------------------|-------------------------/12-|
--9--8--9--8-9--9-8--9--9-8-|--9--8--9--8-9--9-8--9---/11-|
--9--9--9--9-9--9-9--9--9-9-|--9--9--9--9-9--9-9--9-------|
----------------------------|-----------------------------|
----------------------------|-----------------------------|


   |---3---|   |---3---|   |---3---|                                        
   E   E   E   E   E   E   E   E   E   E  S S    E  E  E  S E  S E  E  S S  
----------------------------------------------|----------------------------|
--12--12--12--12--12--12--12--12--12--12--x-x-|----------------------------|
--11--11--11--11--11--11--11--11--11--11--x-x-|--9--8--9--8-9--9-8--9--9-8-|
------------------------------------------x-x-|--9--9--9--9-9--9-9--9--9-9-|
----------------------------------------------|----------------------------|
----------------------------------------------|----------------------------|


  E  E  E  S E  S E  E  S S    E  E  E  S E  S E  E.    S  
----------------------------|-----------------------------|
----------------------------|-------------------------/12-|
--9--8--9--8-9--9-8--9--9-8-|--9--8--9--8-9--9-8--9---/11-|
--9--9--9--9-9--9-9--9--9-9-|--9--9--9--9-9--9-9--9-------|
----------------------------|-----------------------------|
----------------------------|-----------------------------|


   |---3---|   |---3---|   |---3---|                                        
   E   E   E   E   E   E   E   E   E   E  S S    E  E  E  S E  S E  E  S S  
----------------------------------------------|----------------------------|
--12--12--12--12--12--12--12--12--12--12--x-x-|----------------------------|
--11--11--11--11--11--11--11--11--11--11--x-x-|--4--2--4--2-4--4-2--4--4-2-|
------------------------------------------x-x-|----------------------------|
----------------------------------------------|----------------------------|
----------------------------------------------|----------------------------|


  E  E  E  S E  S E  E  S S    E  E  E  S E  S E  E  S S  
----------------------------|----------------------------|
----------------------------|----------------------------|
--4--2--4--2-4--4-2--4--4-2-|--5--3--5--3-5--5-3--5--5-3-|
----------------------------|----------------------------|
----------------------------|----------------------------|
----------------------------|----------------------------|


  E  E  E  S E  S E  E  E     E  E  E  S E  S E  E  S S  
---------------------------|----------------------------|
---------------------------|----------------------------|
--2--0--2--0-2--2-0--2--3--|--4--2--4--2-4--4-2--4--4-2-|
---------------------------|----------------------------|
---------------------------|----------------------------|
---------------------------|----------------------------|


  E  E  E  S E  S E  E  S S    E  E  E  S E  S E  E  S S  
----------------------------|----------------------------|
----------------------------|----------------------------|
--4--2--4--2-4--4-2--4--4-2-|--5--3--5--3-5--5-3--5--5-3-|
----------------------------|----------------------------|
----------------------------|----------------------------|
----------------------------|----------------------------|


  E  E  E  S E  S E  E  E     E  E  E  S E  S E  E  S S  
---------------------------|----------------------------|
---------------------------|----------------------------|
--2--0--2--0-2--2-0--2--3--|--4--2--4--2-4--4-2--4--4-2-|
---------------------------|----------------------------|
---------------------------|----------------------------|
---------------------------|----------------------------|


  E  E  E  S E  S E  E  S S    E  E  E  S E  S E  E  S S  
----------------------------|----------------------------|
----------------------------|----------------------------|
--4--2--4--2-4--4-2--4--4-2-|--5--3--5--3-5--5-3--5--5-3-|
----------------------------|----------------------------|
----------------------------|----------------------------|
----------------------------|----------------------------|


  E  E  E  S E  S E  E  E     E  E  E  S E  S E  E  S S  
---------------------------|----------------------------|
---------------------------|----------------------------|
--2--0--2--0-2--2-0--2--3--|--4--2--4--2-4--4-2--4--4-2-|
---------------------------|----------------------------|
---------------------------|----------------------------|
---------------------------|----------------------------|


  E  E  E  S E  S E  E  S S    E  E  E  S E  S E  E  S S    H        Q    Q     
----------------------------|----------------------------|---------------------|
----------------------------|----------------------------|---------------------|
--4--2--4--2-4--4-2--4--4-2-|--5--3--5--3-5--5-3--5--5-3-|--2--------2----2----|
----------------------------|----------------------------|--2--------2----2----|
----------------------------|----------------------------|--0--------0----0----|
----------------------------|----------------------------|---------------------|


  E  E  E  S E  S E  E  S S    E  E  E  S E  S E  E  S S  
----------------------------|----------------------------|
----------------------------|----------------------------|
--9--8--9--8-9--9-8--9--9-8-|--9--8--9--8-9--9-8--9--9-8-|
--9--9--9--9-9--9-9--9--9-9-|--9--9--9--9-9--9-9--9--9-9-|
----------------------------|----------------------------|
----------------------------|----------------------------|


                                 |---3---|   |---3---|   |---3---|           
  E  E  E  S E  S E  E.    S     E   E   E   E   E   E   E   E   E   E  S S  
-----------------------------|----------------------------------------------|
-------------------------/12-|--12--12--12--12--12--12--12--12--12--12--x-x-|
--9--8--9--8-9--9-8--9---/11-|--11--11--11--11--11--11--11--11--11--11--x-x-|
--9--9--9--9-9--9-9--9-------|------------------------------------------x-x-|
-----------------------------|----------------------------------------------|
-----------------------------|----------------------------------------------|


  E  E  E  S E  S E  E  S S    E  E  E  S E  S E  E  S S  
----------------------------|----------------------------|
----------------------------|----------------------------|
--9--8--9--8-9--9-8--9--9-8-|--9--8--9--8-9--9-8--9--9-8-|
--9--9--9--9-9--9-9--9--9-9-|--9--9--9--9-9--9-9--9--9-9-|
----------------------------|----------------------------|
----------------------------|----------------------------|


                                 |---3---|   |---3---|   |---3---|           
  E  E  E  S E  S E  E.    S     E   E   E   E   E   E   E   E   E   E  S S  
-----------------------------|----------------------------------------------|
-------------------------/12-|--12--12--12--12--12--12--12--12--12--12--x-x-|
--9--8--9--8-9--9-8--9---/11-|--11--11--11--11--11--11--11--11--11--11--x-x-|
--9--9--9--9-9--9-9--9-------|------------------------------------------x-x-|
-----------------------------|----------------------------------------------|
-----------------------------|----------------------------------------------|


  H.           E  S S    H.           E  S S    W                 
----------------------|----------------------|-------------------|
----------------------|----------------------|-------------------|
------------------2-2-|--2------------L--4-4-|--4----------------|
--2------------L--2-2-|--2------------L--4-4-|--4----------------|
--2------------L--0-0-|--0------------L--2-2-|--2----------------|
--0------------L------|----------------------|-------------------|


  H.           E  S S    H.           E  S S    H.           E  S S  
----------------------|----------------------|----------------------|
----------------------|----------------------|----------------------|
--L------------L--x-x-|------------------2-2-|--2------------L--4-4-|
--L------------L--x-x-|--2------------L--2-2-|--2------------L--4-4-|
--L------------L--x-x-|--2------------L--0-0-|--0------------L--2-2-|
----------------------|--0------------L------|----------------------|


  W                   H.           E  S S    H.           E  S S  
-------------------|----------------------|----------------------|
-------------------|----------------------|----------------------|
--4----------------|--L------------L--x-x-|------------------2-2-|
--4----------------|--L------------L--x-x-|--2------------L--2-2-|
--2----------------|--L------------L--x-x-|--2------------L--0-0-|
-------------------|----------------------|--0------------L------|


  H.           E  S S    W                   H.           E  S S  
----------------------|-------------------|----------------------|
----------------------|-------------------|----------------------|
--2------------L--4-4-|--4----------------|--L------------L--x-x-|
--2------------L--4-4-|--4----------------|--L------------L--x-x-|
--0------------L--2-2-|--2----------------|--L------------L--x-x-|
----------------------|-------------------|----------------------|


     PM PM    PM   PM   PM PM    PM PM       PM PM    PM   PM   PM PM    PM PM  
  E  S  S  E  S  S S  S S  S  E  S  S     E  S  S  E  S  S S  S S  S  E  S  S   
---------------------------------------|---------------------------------------|
---------------------------------------|---------------------------------------|
---------------------------------------|---------------------------------------|
---------------------------------------|--2--------2-----2----2-------2--------|
--2--------2-----2----2-------2--------|--0--0--0--0--0--0-0--0-0--0--0--0--0--|
--0--0--0--0--0--0-0--0-0--0--0--0--0--|---------------------------------------|


     PM PM                    PM PM  
  E  S  S  E  S S S S S S S S S  S   
------------------------------------|
------------------------------------|
------------------------------------|
--4--------4--4---4-4-4-4-4-4-------|
--2--2--2--2--2-2-2-2-2-2-2-2-2--2--|
------------------------------------|


          PM   PM   PM PM PM PM PM PM PM                                 
  S S S S S  S S  S S  S  S  S  S  S  S  S    E  E  E  S E  S E  E  S S  
-------------------------------------------|----------------------------|
-------------------------------------------|----------------------------|
-------------------------------------------|--9--8--9--8-9--9-8--9--9-8-|
--4-4-4-4--------------------------------4-|--9--9--9--9-9--9-9--9--9-9-|
--2-2-2-2-2--2-2--2-2--2--2--2--2--2--2--2-|----------------------------|
-------------------------------------------|----------------------------|


  E  E  E  S E  S E  E  S S    E  E  E  S E  S E  E.    S  
----------------------------|-----------------------------|
----------------------------|-------------------------/12-|
--9--8--9--8-9--9-8--9--9-8-|--9--8--9--8-9--9-8--9---/11-|
--9--9--9--9-9--9-9--9--9-9-|--9--9--9--9-9--9-9--9-------|
----------------------------|-----------------------------|
----------------------------|-----------------------------|


   |---3---|   |---3---|   |---3---|                                        
   E   E   E   E   E   E   E   E   E   E  S S    E  E  E  S E  S E  E  S S  
----------------------------------------------|----------------------------|
--12--12--12--12--12--12--12--12--12--12--x-x-|----------------------------|
--11--11--11--11--11--11--11--11--11--11--x-x-|--9--8--9--8-9--9-8--9--9-8-|
------------------------------------------x-x-|--9--9--9--9-9--9-9--9--9-9-|
----------------------------------------------|----------------------------|
----------------------------------------------|----------------------------|


  E  E  E  S E  S E  E  S S    E  E  E  S E  S E  E.    S  
----------------------------|-----------------------------|
----------------------------|-------------------------/12-|
--9--8--9--8-9--9-8--9--9-8-|--9--8--9--8-9--9-8--9---/11-|
--9--9--9--9-9--9-9--9--9-9-|--9--9--9--9-9--9-9--9-------|
----------------------------|-----------------------------|
----------------------------|-----------------------------|


   |---3---|   |---3---|   |---3---|                                        
   E   E   E   E   E   E   E   E   E   E  S S    E  E  E  S E  S E  E  S S  
----------------------------------------------|----------------------------|
--12--12--12--12--12--12--12--12--12--12--x-x-|----------------------------|
--11--11--11--11--11--11--11--11--11--11--x-x-|--9--8--9--8-9--9-8--9--9-8-|
------------------------------------------x-x-|--9--9--9--9-9--9-9--9--9-9-|
----------------------------------------------|----------------------------|
----------------------------------------------|----------------------------|


  E  E  E  S E  S E  E  S S    E  E  E  S E  S E  E.    S  
----------------------------|-----------------------------|
----------------------------|-------------------------/12-|
--9--8--9--8-9--9-8--9--9-8-|--9--8--9--8-9--9-8--9---/11-|
--9--9--9--9-9--9-9--9--9-9-|--9--9--9--9-9--9-9--9-------|
----------------------------|-----------------------------|
----------------------------|-----------------------------|


   |---3---|   |---3---|   |---3---|                                        
   E   E   E   E   E   E   E   E   E   E  S S    E  E  E  S E  S E  E  S S  
----------------------------------------------|----------------------------|
--12--12--12--12--12--12--12--12--12--12--x-x-|----------------------------|
--11--11--11--11--11--11--11--11--11--11--x-x-|--9--8--9--8-9--9-8--9--9-8-|
------------------------------------------x-x-|--9--9--9--9-9--9-9--9--9-9-|
----------------------------------------------|----------------------------|
----------------------------------------------|----------------------------|


  E  E  E  S E  S E  E  S S    E  E  E  S E  S E  E.    S  
----------------------------|-----------------------------|
----------------------------|-------------------------/12-|
--9--8--9--8-9--9-8--9--9-8-|--9--8--9--8-9--9-8--9---/11-|
--9--9--9--9-9--9-9--9--9-9-|--9--9--9--9-9--9-9--9-------|
----------------------------|-----------------------------|
----------------------------|-----------------------------|


   |---3---|   |---3---|   |---3---|                                        
   E   E   E   E   E   E   E   E   E   E  S S    E  E  E  S E  S E  E  S S  
----------------------------------------------|----------------------------|
--12--12--12--12--12--12--12--12--12--12--x-x-|----------------------------|
--11--11--11--11--11--11--11--11--11--11--x-x-|--9--8--9--8-9--9-8--9--9-8-|
------------------------------------------x-x-|--9--9--9--9-9--9-9--9--9-9-|
----------------------------------------------|----------------------------|
----------------------------------------------|----------------------------|


  E  E  E  S E  S E  E  S S    E  E  E  S E  S E  E.    S  
----------------------------|-----------------------------|
----------------------------|-------------------------/12-|
--9--8--9--8-9--9-8--9--9-8-|--9--8--9--8-9--9-8--9---/11-|
--9--9--9--9-9--9-9--9--9-9-|--9--9--9--9-9--9-9--9-------|
----------------------------|-----------------------------|
----------------------------|-----------------------------|


   |---3---|   |---3---|   |---3---|                                        
   E   E   E   E   E   E   E   E   E   E  S S    E  E  E  S E  S E  E  S S  
----------------------------------------------|----------------------------|
--12--12--12--12--12--12--12--12--12--12--x-x-|----------------------------|
--11--11--11--11--11--11--11--11--11--11--x-x-|--9--8--9--8-9--9-8--9--9-8-|
------------------------------------------x-x-|--9--9--9--9-9--9-9--9--9-9-|
----------------------------------------------|----------------------------|
----------------------------------------------|----------------------------|


  E  E  E  S E  S E  E  S S    E  E  E  S E  S E  E.    S  
----------------------------|-----------------------------|
----------------------------|-------------------------/12-|
--9--8--9--8-9--9-8--9--9-8-|--9--8--9--8-9--9-8--9---/11-|
--9--9--9--9-9--9-9--9--9-9-|--9--9--9--9-9--9-9--9-------|
----------------------------|-----------------------------|
----------------------------|-----------------------------|


   |---3---|   |---3---|   |---3---|            
   E   E   E   E   E   E   E   E   E   E  S S   
----------------------------------------------||
--12--12--12--12--12--12--12--12--12--12--x-x-||
--11--11--11--11--11--11--11--11--11--11--x-x-||
------------------------------------------x-x-||
----------------------------------------------||
----------------------------------------------||



=============================================================
=============================================================
=============================================================



Guitar 2 - this part is only played during the chorus




                                     E  E  E  S E  S E  E  S S  
E||-------|-------|-------|-------|--0--0--0--0-0--0-0--0--0-0-|
B||-------|-------|-------|-------|--5--4--5--4-5--5-4--5--5-4-|
G||-------|-------|-------|-------|--4--4--4--4-4--4-4--4--4-4-|
D||-------|-------|-------|-------|----------------------------|
A||-------|-------|-------|-------|----------------------------|
E||-------|-------|-------|-------|----------------------------|


  E  E  E  S E  S E  E  S S    E  E  E  S E  S E  E  E   
--0--0--0--0-0--0-0--0--0-0-|--0--0--0--0-0--0-0--0--0--|
--5--4--5--4-5--5-4--5--5-4-|--5--4--5--4-5--5-4--5--5--|
--4--4--4--4-4--4-4--4--4-4-|--4--4--4--4-4--4-4--4--4--|
----------------------------|---------------------------|
----------------------------|---------------------------|
----------------------------|---------------------------|


  |--3--|  |--3--|  |--3--|                                     
  E  E  E  E  E  E  E  E  E  Q       E  E  E  S E  S E  E  S S  
----------------------------------|--0--0--0--0-0--0-0--0--0-0-|
--5--5--5--5--5--5--5--5--5--5----|--5--4--5--4-5--5-4--5--5-4-|
--4--4--4--4--4--4--4--4--4--4----|--4--4--4--4-4--4-4--4--4-4-|
----------------------------------|----------------------------|
----------------------------------|----------------------------|
----------------------------------|----------------------------|


  E  E  E  S E  S E  E  S S    E  E  E  S E  S E  E  E   
--0--0--0--0-0--0-0--0--0-0-|--0--0--0--0-0--0-0--0--0--|
--5--4--5--4-5--5-4--5--5-4-|--5--4--5--4-5--5-4--5--5--|
--4--4--4--4-4--4-4--4--4-4-|--4--4--4--4-4--4-4--4--4--|
----------------------------|---------------------------|
----------------------------|---------------------------|
----------------------------|---------------------------|


  |--3--|  |--3--|  |--3--|                                                
  E  E  E  E  E  E  E  E  E  Q                                             
----------------------------------|-------|-------|-------|-------|-------|
--5--5--5--5--5--5--5--5--5--5----|-------|-------|-------|-------|-------|
--4--4--4--4--4--4--4--4--4--4----|-------|-------|-------|-------|-------|
----------------------------------|-------|-------|-------|-------|-------|
----------------------------------|-------|-------|-------|-------|-------|
----------------------------------|-------|-------|-------|-------|-------|



=============================================================
=============================================================
=============================================================

Guitar solo


          W                   W                   H        E   Q     E   
-------|-------------------|-------------------|--------------12----11--|
-------|-------------------|-------------------|------------------------|
-------|-------------------|-------------------|------------------------|
-------|-------------------|-------------------|------------------------|
-------|-------------------|-------------------|------------------------|
-------|-------------------|-------------------|------------------------|


   E   E   E   H         E      W                   W                 
---L------------------------|--------------------|-------------------|
------14--12----------------|--------------------|-------------------|
--------------11---------L--|--11----------------|-------------------|
----------------------------|--------------------|-------------------|
----------------------------|--------------------|-------------------|
----------------------------|--------------------|-------------------|


  H        E   Q     E      Q    H.                            
------------------------|---------------------|-------|-------|
--------------12--------|---------------------|-------|-------|
--------------------11--|---L-----------------|-------|-------|
------------------------|--------9------------|-------|-------|
------------------------|---------------------|-------|-------|
------------------------|---------------------|-------|-------|


  H        E   Q     E      E   E   E   H         E      W                 
--------------12----11--|---L------------------------|--------------------|
------------------------|------14--12----------------|--------------------|
------------------------|--------------11---------L--|--11----------------|
------------------------|----------------------------|--------------------|
------------------------|----------------------------|--------------------|
------------------------|----------------------------|--------------------|


   W                                                                         
--------------------|-------|-------|-------|-------|-------|-------|-------|
--------------------|-------|-------|-------|-------|-------|-------|-------|
--11----------------|-------|-------|-------|-------|-------|-------|-------|
--------------------|-------|-------|-------|-------|-------|-------|-------|
--------------------|-------|-------|-------|-------|-------|-------|-------|
--------------------|-------|-------|-------|-------|-------|-------|-------|







Duration Legend
---------------
W - whole
H - half
Q - quarter
E - 8th
S - 16th
T - 32nd
X - 64th
. - note dotted
|-n-|  - n-tuplets


Tablature Legend
----------------
L - tied note
x - dead note
g - grace note
(n) - ghost note
> - accentuded note
NH - natural harmonic
AH - artificial harmonic
TH - tapped harmonic
SH - semi harmonic
PH - pitch harmonic
h - hammer on
p - pull off
b - bend
br - bendRelease
pb - preBend
pbr - preBendRelease
brb - bendReleaseBend
\n/ - tremolo bar dip
\n - tremolo bar dive
-/n - tremolo bar Release up
/n\ - tremolo bar inverted dip
/n - tremolo bar return
-\n - tremolo bar Release down
S - shift slide
s - legato slide
/ -  slide into from below or out of upwards
\ -  slide into from above or out of downwards
~ - vibrato
W - wide vibrato
tr - trill
TP - tremolo picking
T - tapping
S - slap
P - pop
< - fade in
^ - brush up
v - brush down




comments
We did not receive enough feedback on this tab! Please rate:
1 2 3 4 5
I want to post or [tab]
guest
You may want to rate the tab now too:
select rating
Please do not post tabs as comments. Select "correction" instead!