Oops, an error
Loading. Please wait.

My Life Tab

ver2
ver2

Whole song

More versions @911Tabs.com
35 views 1 this week
no commentswrite comment
1 2 3 4 5
please rate
add to favorites launch autoscroll
font size
0
reset
Autoscroll
+/-
esc
set tempo
stop
Contributor
Difficulty
intermediate
WARNING: You are trying to view
                                    content from Ultimate-Guitar.com
                                    in an unauthorized application,
                                    which is prohibited.

                                    Please use an official Ultimate
                                    Guitar Tabs application for iPhone,
                                    iPad or Android to access legitimate
                                    chords, guitar, bass, and drum tabs
                                    from Ultimate-Guitar.com database.

                                    Type "ultimate guitar tabs" in Apple
                                    App Store's or Android Market's
                                    search to find the application.
-----------------------------------------------------------------------------
                     My Life - Saigon Kick (GUITAR)
                       
-----------------------------------------------------------------------------
Tabbed by: Scotto10

Tuning: Standard

=============================================================================

                                    

Guitar



     Q    Q    Q    Q       Q    Q    Q    Q       Q    Q    Q    Q     
E||----------------------|----------------------|----------------------|
B||----------------------|----------------------|----------------------|
G||-------5---------5----|-------5---------5----|-------5---------5----|
D||----------------------|----------------------|----------------------|
A||--3---------3---------|--3---------3---------|--3---------3---------|
E||----------------------|----------------------|----------------------|


  Q    Q    Q    Q       Q    Q    Q    Q       Q    Q    Q    Q     
----------------------|----------------------|----------------------|
----------------------|----------------------|----------------------|
-------5---------5----|-------5---------5----|-------5---------5----|
----------------------|----------------------|----------------------|
--3---------3---------|--3---------3---------|--3---------3---------|
----------------------|----------------------|----------------------|


  Q    Q    Q    Q       Q    Q    Q    Q       Q    Q    Q    Q     
----------------------|----------------------|----------------------|
----------------------|----------------------|----------------------|
-------5---------5----|-------5---------5----|-------3---------3----|
----------------------|----------------------|----------------------|
--3---------3---------|--3---------3---------|--1---------1---------|
----------------------|----------------------|----------------------|


  Q    Q    Q    Q       Q    Q    Q    Q       Q    Q    Q    Q     
----------------------|----------------------|----------------------|
----------------------|----------------------|----------------------|
----------------------|-------5---------5----|-------5---------5----|
-------3---------3----|----------------------|----------------------|
----------------------|--3---------3---------|--3---------3---------|
--1---------1---------|----------------------|----------------------|


  Q    Q    Q    Q       Q    Q    Q    Q       Q    Q    Q    Q     
----------------------|----------------------|----------------------|
----------------------|----------------------|----------------------|
-------5---------5----|-------5---------5----|-------5---------5----|
----------------------|----------------------|----------------------|
--3---------3---------|--3---------3---------|--3---------3---------|
----------------------|----------------------|----------------------|


  Q    Q    Q    Q       Q    Q    Q    Q       Q    Q    Q    Q     
----------------------|----------------------|----------------------|
----------------------|----------------------|----------------------|
-------5---------5----|-------3---------3----|----------------------|
----------------------|----------------------|-------3---------3----|
--3---------3---------|--1---------1---------|----------------------|
----------------------|----------------------|--1---------1---------|


  Q    Q    Q    Q       Q    Q    Q    Q       Q    Q    Q    Q     
----------------------|----------------------|----------------------|
----------------------|----------------------|----------------------|
-------5---------5----|-------5---------5----|-------3---------3----|
----------------------|----------------------|----------------------|
--3---------3---------|--3---------3---------|--1---------1---------|
----------------------|----------------------|----------------------|


  Q    Q    Q    Q       Q    Q    Q    Q       Q    Q    Q    Q     
----------------------|----------------------|----------------------|
----------------------|----------------------|----------------------|
----------------------|-------5---------5----|-------5---------5----|
-------3---------3----|----------------------|----------------------|
----------------------|--3---------3---------|--3---------3---------|
--1---------1---------|----------------------|----------------------|


  W                   W                   Q    Q    Q    Q     
--2----------------|-------------------|----------------------|
--3----------------|--3----------------|----------------------|
--2----------------|--3----------------|-------5---------5----|
--0----------------|--3----------------|----------------------|
-------------------|--1----------------|--3---------3---------|
-------------------|-------------------|----------------------|


  Q    Q    Q    Q       W                   W                 
----------------------|--2----------------|-------------------|
----------------------|--3----------------|--3----------------|
-------5---------5----|--2----------------|--3----------------|
----------------------|--0----------------|--3----------------|
--3---------3---------|-------------------|--1----------------|
----------------------|-------------------|-------------------|


  Q    E  E  Q    E  E     Q    Q    Q    E.  S    Q    Q    Q    E.  S  
--3----3--3--3----3--3--|--3----3---------3---3-|--3----3---------3---3-|
--3----3--3--3----3--3--|--3----3---------3---3-|--3----3---------3---3-|
--0----0--0--0----0--0--|--0----0---------0---0-|--0----0---------0---0-|
--0----0--0--0----0--0--|--0----0----0----0---0-|--0----0----0----0---0-|
--2----2--2--2----2--2--|--2----2----2----2---2-|--2----2----2----2---2-|
--3----3--3--3----3--3--|--3----3----3----3---3-|--3----3----3----3---3-|


  Q    Q    Q    E.  S    H        H           H        H         
--3----3---------3---3-|--------------------|--1--------1--------|
--3----3---------3---3-|--1--------1--------|--1--------1--------|
--0----0---------0---0-|--0--------0--------|--2--------2--------|
--0----0----0----0---0-|--2--------2--------|--3--------3--------|
--2----2----2----2---2-|--3--------3--------|--3--------3--------|
--3----3----3----3---3-|--------------------|--------------------|


  H        H           H        H           H        H         
--3--------3--------|--1--------3--------|--------------------|
--3--------3--------|--1--------3--------|--1--------1--------|
--0--------0--------|--2--------0--------|--0--------0--------|
--0--------0--------|--3--------0--------|--2--------2--------|
--2--------2--------|--3--------2--------|--3--------3--------|
--3--------3--------|-----------3--------|--------------------|


  H        H           H        H           H        H         
--1--------1--------|--3--------3--------|--1--------3--------|
--1--------1--------|--3--------3--------|--1--------3--------|
--2--------2--------|--0--------0--------|--2--------0--------|
--3--------3--------|--0--------0--------|--3--------0--------|
--3--------3--------|--2--------2--------|--3--------2--------|
--------------------|--3--------3--------|-----------3--------|


  H        H           H        H           H        H         
--------------------|--1--------1--------|--3--------3--------|
--1--------1--------|--1--------1--------|--3--------3--------|
--0--------0--------|--2--------2--------|--0--------0--------|
--2--------2--------|--3--------3--------|--0--------0--------|
--3--------3--------|--3--------3--------|--2--------2--------|
--------------------|--------------------|--3--------3--------|


  H        H           H        H           H        H         
--1--------3--------|--------------------|--1--------1--------|
--1--------3--------|--1--------1--------|--1--------1--------|
--2--------0--------|--0--------0--------|--2--------2--------|
--3--------0--------|--2--------2--------|--3--------3--------|
--3--------2--------|--3--------3--------|--3--------3--------|
-----------3--------|--------------------|--------------------|


  Q    E  E  Q    E  E     Q    Q    Q    E.  S    Q    Q    Q    E.  S  
--3----3--3--3----3--3--|--3----3---------3---3-|--3----3---------3---3-|
--3----3--3--3----3--3--|--3----3---------3---3-|--3----3---------3---3-|
--0----0--0--0----0--0--|--0----0---------0---0-|--0----0---------0---0-|
--0----0--0--0----0--0--|--0----0----0----0---0-|--0----0----0----0---0-|
--2----2--2--2----2--2--|--2----2----2----2---2-|--2----2----2----2---2-|
--3----3--3--3----3--3--|--3----3----3----3---3-|--3----3----3----3---3-|


  Q    Q    Q    E.  S    Q    Q    Q    Q       Q    Q    Q    Q     
--3----3---------3---3-|----------------------|----------------------|
--3----3---------3---3-|----------------------|----------------------|
--0----0---------0---0-|-------5---------5----|-------5---------5----|
--0----0----0----0---0-|----------------------|----------------------|
--2----2----2----2---2-|--3---------3---------|--3---------3---------|
--3----3----3----3---3-|----------------------|----------------------|


  Q    Q    Q    Q       Q    Q    Q    Q       Q    Q    Q    Q     
----------------------|----------------------|----------------------|
----------------------|----------------------|----------------------|
-------5---------5----|-------5---------5----|-------3---------3----|
----------------------|----------------------|----------------------|
--3---------3---------|--3---------3---------|--1---------1---------|
----------------------|----------------------|----------------------|


  Q    Q    Q    Q       Q    Q    Q    Q       Q    Q    Q    Q     
----------------------|----------------------|----------------------|
----------------------|----------------------|----------------------|
----------------------|-------5---------5----|-------5---------5----|
-------3---------3----|----------------------|----------------------|
----------------------|--3---------3---------|--3---------3---------|
--1---------1---------|----------------------|----------------------|


  Q    Q    Q    Q       Q    Q    Q    Q       Q    Q    Q    Q     
----------------------|----------------------|----------------------|
----------------------|----------------------|----------------------|
-------5---------5----|-------5---------5----|-------5---------5----|
----------------------|----------------------|----------------------|
--3---------3---------|--3---------3---------|--3---------3---------|
----------------------|----------------------|----------------------|


  Q    Q    Q    Q       Q    Q    Q    Q       Q    Q    Q    Q     
----------------------|----------------------|----------------------|
----------------------|----------------------|----------------------|
-------5---------5----|-------3---------3----|----------------------|
----------------------|----------------------|-------3---------3----|
--3---------3---------|--1---------1---------|----------------------|
----------------------|----------------------|--1---------1---------|


  Q    Q    Q    Q       Q    Q    Q    Q       Q    Q    Q    Q     
----------------------|----------------------|----------------------|
----------------------|----------------------|----------------------|
-------5---------5----|-------5---------5----|-------3---------3----|
----------------------|----------------------|----------------------|
--3---------3---------|--3---------3---------|--1---------1---------|
----------------------|----------------------|----------------------|


  Q    Q    Q    Q       Q    Q    Q    Q       Q    Q    Q    Q     
----------------------|----------------------|----------------------|
----------------------|----------------------|----------------------|
----------------------|-------5---------5----|-------5---------5----|
-------3---------3----|----------------------|----------------------|
----------------------|--3---------3---------|--3---------3---------|
--1---------1---------|----------------------|----------------------|


  W                   W                   Q    Q    Q    Q     
--2----------------|-------------------|----------------------|
--3----------------|--3----------------|----------------------|
--2----------------|--3----------------|-------5---------5----|
--0----------------|--3----------------|----------------------|
-------------------|--1----------------|--3---------3---------|
-------------------|-------------------|----------------------|


  Q    Q    Q    Q       W                   W                 
----------------------|--2----------------|-------------------|
----------------------|--3----------------|--3----------------|
-------5---------5----|--2----------------|--3----------------|
----------------------|--0----------------|--3----------------|
--3---------3---------|-------------------|--1----------------|
----------------------|-------------------|-------------------|


  Q    E  E  Q    E  E     Q    Q    Q    E.  S    Q    Q    Q    E.  S  
--3----3--3--3----3--3--|--3----3---------3---3-|--3----3---------3---3-|
--3----3--3--3----3--3--|--3----3---------3---3-|--3----3---------3---3-|
--0----0--0--0----0--0--|--0----0---------0---0-|--0----0---------0---0-|
--0----0--0--0----0--0--|--0----0----0----0---0-|--0----0----0----0---0-|
--2----2--2--2----2--2--|--2----2----2----2---2-|--2----2----2----2---2-|
--3----3--3--3----3--3--|--3----3----3----3---3-|--3----3----3----3---3-|


  Q    Q    Q    E.  S    H        H           H        H         
--3----3---------3---3-|--------------------|--1--------1--------|
--3----3---------3---3-|--1--------1--------|--1--------1--------|
--0----0---------0---0-|--0--------0--------|--2--------2--------|
--0----0----0----0---0-|--2--------2--------|--3--------3--------|
--2----2----2----2---2-|--3--------3--------|--3--------3--------|
--3----3----3----3---3-|--------------------|--------------------|


  H        H           H        H           H        H         
--3--------3--------|--1--------3--------|--------------------|
--3--------3--------|--1--------3--------|--1--------1--------|
--0--------0--------|--2--------0--------|--0--------0--------|
--0--------0--------|--3--------0--------|--2--------2--------|
--2--------2--------|--3--------2--------|--3--------3--------|
--3--------3--------|-----------3--------|--------------------|


  H        H           H        H           H        H         
--1--------1--------|--3--------3--------|--1--------3--------|
--1--------1--------|--3--------3--------|--1--------3--------|
--2--------2--------|--0--------0--------|--2--------0--------|
--3--------3--------|--0--------0--------|--3--------0--------|
--3--------3--------|--2--------2--------|--3--------2--------|
--------------------|--3--------3--------|-----------3--------|


  H        H           H        H           H        H         
--------------------|--1--------1--------|--3--------3--------|
--1--------1--------|--1--------1--------|--3--------3--------|
--0--------0--------|--2--------2--------|--0--------0--------|
--2--------2--------|--3--------3--------|--0--------0--------|
--3--------3--------|--3--------3--------|--2--------2--------|
--------------------|--------------------|--3--------3--------|


  H        H           H        H           H        H         
--1--------3--------|--------------------|--1--------1--------|
--1--------3--------|--1--------1--------|--1--------1--------|
--2--------0--------|--0--------0--------|--2--------2--------|
--3--------0--------|--2--------2--------|--3--------3--------|
--3--------2--------|--3--------3--------|--3--------3--------|
-----------3--------|--------------------|--------------------|


  Q    E  E  Q    E  E     Q    Q    Q    E.  S    Q    Q    Q    E.  S  
--3----3--3--3----3--3--|--3----3---------3---3-|--3----3---------3---3-|
--3----3--3--3----3--3--|--3----3---------3---3-|--3----3---------3---3-|
--0----0--0--0----0--0--|--0----0---------0---0-|--0----0---------0---0-|
--0----0--0--0----0--0--|--0----0----0----0---0-|--0----0----0----0---0-|
--2----2--2--2----2--2--|--2----2----2----2---2-|--2----2----2----2---2-|
--3----3--3--3----3--3--|--3----3----3----3---3-|--3----3----3----3---3-|


  Q    Q    Q    E.  S    Q    Q    Q    Q       Q    Q    Q    Q     
--3----3---------3---3-|----------------------|----------------------|
--3----3---------3---3-|----------------------|----------------------|
--0----0---------0---0-|-------5---------5----|-------5---------5----|
--0----0----0----0---0-|----------------------|----------------------|
--2----2----2----2---2-|--3---------3---------|--3---------3---------|
--3----3----3----3---3-|----------------------|----------------------|


  Q    Q    Q    Q       Q    Q    Q    Q       Q    Q    Q    Q     
----------------------|----------------------|----------------------|
----------------------|----------------------|----------------------|
-------5---------5----|-------5---------5----|-------3---------3----|
----------------------|----------------------|----------------------|
--3---------3---------|--3---------3---------|--1---------1---------|
----------------------|----------------------|----------------------|


  Q    Q    Q    Q       Q    Q    Q    Q       Q    Q    Q    Q     
----------------------|----------------------|----------------------|
----------------------|----------------------|----------------------|
----------------------|-------5---------5----|-------5---------5----|
-------3---------3----|----------------------|----------------------|
----------------------|--3---------3---------|--3---------3---------|
--1---------1---------|----------------------|----------------------|


  Q    Q    Q    Q       Q    Q    Q    Q       Q    Q    Q    Q     
----------------------|----------------------|----------------------|
----------------------|----------------------|----------------------|
-------5---------5----|-------5---------5----|-------5---------5----|
----------------------|----------------------|----------------------|
--3---------3---------|--3---------3---------|--3---------3---------|
----------------------|----------------------|----------------------|


  Q    Q    Q    Q       Q    Q    Q    Q       Q    Q    Q    Q     
----------------------|----------------------|----------------------|
----------------------|----------------------|----------------------|
-------5---------5----|-------3---------3----|----------------------|
----------------------|----------------------|-------3---------3----|
--3---------3---------|--1---------1---------|----------------------|
----------------------|----------------------|--1---------1---------|


  Q    Q    Q    Q       Q    Q    Q    Q       Q    Q    Q    Q     
----------------------|----------------------|----------------------|
----------------------|----------------------|----------------------|
-------5---------5----|-------5---------5----|-------3---------3----|
----------------------|----------------------|----------------------|
--3---------3---------|--3---------3---------|--1---------1---------|
----------------------|----------------------|----------------------|


  Q    Q    Q    Q       Q    Q    Q    Q       Q    Q    Q    Q     
----------------------|----------------------|----------------------|
----------------------|----------------------|----------------------|
----------------------|-------5---------5----|-------5---------5----|
-------3---------3----|----------------------|----------------------|
----------------------|--3---------3---------|--3---------3---------|
--1---------1---------|----------------------|----------------------|


  W                   W                   Q    Q    Q    Q     
--2----------------|-------------------|----------------------|
--3----------------|--3----------------|----------------------|
--2----------------|--3----------------|-------5---------5----|
--0----------------|--3----------------|----------------------|
-------------------|--1----------------|--3---------3---------|
-------------------|-------------------|----------------------|


  Q    Q    Q    Q       W                   W                 
----------------------|--2----------------|-------------------|
----------------------|--3----------------|--3----------------|
-------5---------5----|--2----------------|--3----------------|
----------------------|--0----------------|--3----------------|
--3---------3---------|-------------------|--1----------------|
----------------------|-------------------|-------------------|


  Q    E  E  Q    E  E     Q    Q    Q    E.  S    Q    Q    Q    E.  S  
--3----3--3--3----3--3--|--3----3---------3---3-|--3----3---------3---3-|
--3----3--3--3----3--3--|--3----3---------3---3-|--3----3---------3---3-|
--0----0--0--0----0--0--|--0----0---------0---0-|--0----0---------0---0-|
--0----0--0--0----0--0--|--0----0----0----0---0-|--0----0----0----0---0-|
--2----2--2--2----2--2--|--2----2----2----2---2-|--2----2----2----2---2-|
--3----3--3--3----3--3--|--3----3----3----3---3-|--3----3----3----3---3-|


  Q    Q    Q    E.  S    H        H           H        H         
--3----3---------3---3-|--------------------|--1--------1--------|
--3----3---------3---3-|--1--------1--------|--1--------1--------|
--0----0---------0---0-|--0--------0--------|--2--------2--------|
--0----0----0----0---0-|--2--------2--------|--3--------3--------|
--2----2----2----2---2-|--3--------3--------|--3--------3--------|
--3----3----3----3---3-|--------------------|--------------------|


  H        H           H        H           H        H         
--3--------3--------|--1--------3--------|--------------------|
--3--------3--------|--1--------3--------|--1--------1--------|
--0--------0--------|--2--------0--------|--0--------0--------|
--0--------0--------|--3--------0--------|--2--------2--------|
--2--------2--------|--3--------2--------|--3--------3--------|
--3--------3--------|-----------3--------|--------------------|


  H        H           H        H           H        H         
--1--------1--------|--3--------3--------|--1--------3--------|
--1--------1--------|--3--------3--------|--1--------3--------|
--2--------2--------|--0--------0--------|--2--------0--------|
--3--------3--------|--0--------0--------|--3--------0--------|
--3--------3--------|--2--------2--------|--3--------2--------|
--------------------|--3--------3--------|-----------3--------|


  H        H           H        H           H        H         
--------------------|--1--------1--------|--3--------3--------|
--1--------1--------|--1--------1--------|--3--------3--------|
--0--------0--------|--2--------2--------|--0--------0--------|
--2--------2--------|--3--------3--------|--0--------0--------|
--3--------3--------|--3--------3--------|--2--------2--------|
--------------------|--------------------|--3--------3--------|


  H        H           H        H           H        H         
--1--------3--------|--------------------|--1--------1--------|
--1--------3--------|--1--------1--------|--1--------1--------|
--2--------0--------|--0--------0--------|--2--------2--------|
--3--------0--------|--2--------2--------|--3--------3--------|
--3--------2--------|--3--------3--------|--3--------3--------|
-----------3--------|--------------------|--------------------|


  H        H           H        H           H        H         
--3--------3--------|--1--------3--------|--------------------|
--3--------3--------|--1--------3--------|--1--------1--------|
--0--------0--------|--2--------0--------|--0--------0--------|
--0--------0--------|--3--------0--------|--2--------2--------|
--2--------2--------|--3--------2--------|--3--------3--------|
--3--------3--------|-----------3--------|--------------------|


  H        H           H        H           H        H         
--1--------1--------|--3--------3--------|--1--------3--------|
--1--------1--------|--3--------3--------|--1--------3--------|
--2--------2--------|--0--------0--------|--2--------0--------|
--3--------3--------|--0--------0--------|--3--------0--------|
--3--------3--------|--2--------2--------|--3--------2--------|
--------------------|--3--------3--------|-----------3--------|


  H        H           H        H           H        H         
--------------------|--1--------1--------|--3--------3--------|
--1--------1--------|--1--------1--------|--3--------3--------|
--0--------0--------|--2--------2--------|--0--------0--------|
--2--------2--------|--3--------3--------|--0--------0--------|
--3--------3--------|--3--------3--------|--2--------2--------|
--------------------|--------------------|--3--------3--------|


  H        H           H        H           H        H         
--1--------3--------|--------------------|--1--------1--------|
--1--------3--------|--1--------1--------|--1--------1--------|
--2--------0--------|--0--------0--------|--2--------2--------|
--3--------0--------|--2--------2--------|--3--------3--------|
--3--------2--------|--3--------3--------|--3--------3--------|
-----------3--------|--------------------|--------------------|


  H        H           H        H           H        H         
--3--------3--------|--1--------3--------|--------------------|
--3--------3--------|--1--------3--------|--1--------1--------|
--0--------0--------|--2--------0--------|--0--------0--------|
--0--------0--------|--3--------0--------|--2--------2--------|
--2--------2--------|--3--------2--------|--3--------3--------|
--3--------3--------|-----------3--------|--------------------|


  H        H           H        H           H        H         
--1--------1--------|--3--------3--------|--1--------3--------|
--1--------1--------|--3--------3--------|--1--------3--------|
--2--------2--------|--0--------0--------|--2--------0--------|
--3--------3--------|--0--------0--------|--3--------0--------|
--3--------3--------|--2--------2--------|--3--------2--------|
--------------------|--3--------3--------|-----------3--------|


                                               ^                  
  W                   E  E  E  Q.     E  E     W                  
-------------------|------------------------|-------------------||
--1----------------|--1---------------------|--1----------------||
--0----------------|-----0------------------|--0----------------||
--2----------------|--------2---------------|--2----------------||
--3----------------|-----------3------L-----|--3----------------||
-------------------|------------------------|-------------------||




============================================================
============================================================
============================================================


Kazoo solo  


          Q    E  E  E  E  E  E     E  E  H.            
-------|-------------------------|---------------------|
-------|-------5--3--5--3--5--3--|--5--3---------------|
-------|-------------------------|--------5------------|
-------|-------------------------|---------------------|
-------|-------------------------|---------------------|
-------|-------------------------|---------------------|


  Q    E  E  E  E  E  E     E  E  H        Q       Q    Q    Q    Q     
-------------------------|----------------------|-------3--------------|
-------5--3--5--3--5--3--|--5--3----------------|------------6----5----|
-------------------------|--------5--------5----|--3-------------------|
-------------------------|----------------------|----------------------|
-------------------------|----------------------|----------------------|
-------------------------|----------------------|----------------------|


  Q    Q    Q    Q       W                   W                 
----------------------|-------------------|-------------------|
--6----5----3----5----|--5----------------|-------------------|
----------------------|-------------------|-------------------|
----------------------|-------------------|-------------------|
----------------------|-------------------|-------------------|
----------------------|-------------------|-------------------|


  Q    E  E  E  E  E  E     E  E  H.              Q    E  E  E  E  E  E   
-------------------------|---------------------|-------------------------|
-------5--3--5--3--5--3--|--5--3---------------|-------5--3--5--3--5--3--|
-------------------------|--------5------------|-------------------------|
-------------------------|---------------------|-------------------------|
-------------------------|---------------------|-------------------------|
-------------------------|---------------------|-------------------------|


  E  E  H        Q       Q    Q    Q    Q       Q    Q    Q    Q     
-----1--3-------------|-------3--------------|----------------------|
--5--3----------------|------------6----5----|--6----5----3----5----|
--------5--------5----|--3-------------------|----------------------|
----------------------|----------------------|----------------------|
----------------------|----------------------|----------------------|
----------------------|----------------------|----------------------|


  W                   H        Q    Q       Q    Q    Q    Q     
-------------------|---------------------|-------3--------------|
--5----------------|----------------3----|------------6----5----|
-------------------|---------------------|--5-------------------|
-------------------|---------------------|----------------------|
-------------------|---------------------|----------------------|
-------------------|---------------------|----------------------|


  Q    Q    Q    Q       W                   W                                 
----------------------|-------------------|-------------------|-------|-------|
--6----5----3----5----|--5----------------|-------------------|-------|-------|
----------------------|-------------------|-------------------|-------|-------|
----------------------|-------------------|-------------------|-------|-------|
----------------------|-------------------|-------------------|-------|-------|
----------------------|-------------------|-------------------|-------|-------|



Duration Legend
---------------
W - whole
H - half
Q - quarter
E - 8th
S - 16th
T - 32nd
X - 64th
. - note dotted
|-n-|  - n-tuplets


Tablature Legend
----------------
L - tied note
x - dead note
g - grace note
(n) - ghost note
> - accentuded note
NH - natural harmonic
AH - artificial harmonic
TH - tapped harmonic
SH - semi harmonic
PH - pitch harmonic
h - hammer on
p - pull off
b - bend
br - bendRelease
pb - preBend
pbr - preBendRelease
brb - bendReleaseBend
\n/ - tremolo bar dip
\n - tremolo bar dive
-/n - tremolo bar Release up
/n\ - tremolo bar inverted dip
/n - tremolo bar return
-\n - tremolo bar Release down
S - shift slide
s - legato slide
/ -  slide into from below or out of upwards
\ -  slide into from above or out of downwards
~ - vibrato
W - wide vibrato
tr - trill
TP - tremolo picking
T - tapping
S - slap
P - pop
< - fade in
^ - brush up
v - brush down


comments
We did not receive enough feedback on this tab! Please rate:
1 2 3 4 5
I want to post or [tab]
guest
You may want to rate the tab now too:
select rating
Please do not post tabs as comments. Select "correction" instead!