Oops, an error
Loading. Please wait.

Suzy Tab

ver1
ver1

Whole song

Interactive

More versions @911Tabs.com
154 views 1 this week
no commentswrite comment
1 2 3 4 5
please rate
Autoscroll
+/-
esc
set tempo
stop
Contributor
Difficulty
intermediate
WARNING: You are trying to view
                                    content from Ultimate-Guitar.com
                                    in an unauthorized application,
                                    which is prohibited.

                                    Please use an official Ultimate
                                    Guitar Tabs application for iPhone,
                                    iPad or Android to access legitimate
                                    chords, guitar, bass, and drum tabs
                                    from Ultimate-Guitar.com database.

                                    Type "ultimate guitar tabs" in Apple
                                    App Store's or Android Market's
                                    search to find the application.
-----------------------------------------------------------------------------
                                  
                      Suzy - Saigon Kick (GUITAR)
            
-----------------------------------------------------------------------------

Tabbed by: Scotto10

Tuning: standard tuning

=============================================================================
                                                                     
Guitar - rhythm



     W                   W                   W                 
E||-------------------|-------------------|-------------------|
B||-------------------|-------------------|-------------------|
G||-------------------|-------------------|-------------------|
D||-------------------|-------------------|-------------------|
A||-------------------|-------------------|-------------------|
E||-------------------|-------------------|-------------------|


  W                   E  S S S S S S S S E  S E  S  
-------------------|-------------------------------|
-------------------|---------x-x-x-x-x-----------x-|
-------------------|---------x-x-x-x-x-----------x-|
-------------------|-----------------------------x-|
-------------------|--4--4-2-----------2-4--4-2----|
-------------------|--2--2-0-----------0-2--2-0----|


  E  S S S S S S S S E  Q       E  S S S S S S S S E  S E  S  
-----------------------------|-------------------------------|
---------x-x-x-x-x-----------|---------x-x-x-x-x-----------x-|
---------x-x-x-x-x-----------|---------x-x-x-x-x-----------x-|
------------------------2----|-----------------------------x-|
--4--4-2-----------2-4--0----|--4--4-2-----------2-4--4-2----|
--2--2-0-----------0-2-------|--2--2-0-----------0-2--2-0----|


  E  S S S S S S S S E  Q       W                   W                 
-----------------------------|-------------------|-------------------|
---------x-x-x-x-x-----------|-------------------|-------------------|
---------x-x-x-x-x-----------|-------------------|-------------------|
------------------------2----|-------------------|-------------------|
--4--4-2-----------2-4--0----|-------------------|-------------------|
--2--2-0-----------0-2-------|-------------------|-------------------|


  W                   W                   W                   W                 
-------------------|-------------------|-------------------|-------------------|
-------------------|-------------------|-------------------|-------------------|
-------------------|-------------------|-------------------|-------------------|
-------------------|-------------------|-------------------|-------------------|
-------------------|-------------------|-------------------|-------------------|
-------------------|-------------------|-------------------|-------------------|


  W                   W                   E  S S S S S S S S E  S E  S  
-------------------|-------------------|-------------------------------|
-------------------|-------------------|---------x-x-x-x-x-----------x-|
-------------------|-------------------|---------x-x-x-x-x-----------x-|
-------------------|-------------------|-----------------------------x-|
-------------------|-------------------|--4--4-2-----------2-4--4-2----|
-------------------|-------------------|--2--2-0-----------0-2--2-0----|


  E  S S S S S S S S E  Q       E  S S S S S S S S E  S E  S  
-----------------------------|-------------------------------|
---------x-x-x-x-x-----------|---------x-x-x-x-x-----------x-|
---------x-x-x-x-x-----------|---------x-x-x-x-x-----------x-|
------------------------2----|-----------------------------x-|
--4--4-2-----------2-4--0----|--4--4-2-----------2-4--4-2----|
--2--2-0-----------0-2-------|--2--2-0-----------0-2--2-0----|


  E  S S S S S S S S E  Q       W                   W                 
-----------------------------|-------------------|-------------------|
---------x-x-x-x-x-----------|-------------------|-------------------|
---------x-x-x-x-x-----------|-------------------|-------------------|
------------------------2----|-------------------|-------------------|
--4--4-2-----------2-4--0----|-------------------|-------------------|
--2--2-0-----------0-2-------|-------------------|-------------------|


                                                 PM    PM    PM    PM  
  W                   H        Q     Q        E  E  E  E  E  E  E  E   
-------------------|-----------------------|--------------------------|
-------------------|-----------------------|--------------------------|
-------------------|-----------------------|--4-----4-----4-----4-----|
-------------------|-----------------------|--4-----4-----4-----4-----|
-------------------|-----------------------|--2--2--2--2--2--2--2--2--|
-------------------|----------------12\----|--------------------------|


     PM    PM    PM    PM       PM    PM    PM    PM  
  E  E  E  E  E  E  E  E     E  E  E  E  E  E  E  E   
--------------------------|--------------------------|
--------------------------|--------------------------|
--4-----4-----4-----4-----|--------------------------|
--4-----4-----4-----4-----|--4-----4-----4-----4-----|
--2--2--2--2--2--2--2--2--|--4-----4-----4-----4-----|
--------------------------|--2--2--2--2--2--2--2--2--|


     PM    PM    PM    PM       PM    PM    PM    PM  
  E  E  E  E  E  E  E  E     E  E  E  E  E  E  E  E   
--------------------------|--------------------------|
--------------------------|--------------------------|
--------------------------|--4-----4-----4-----4-----|
--4-----4-----4-----4-----|--4-----4-----4-----4-----|
--4-----4-----4-----4-----|--2--2--2--2--2--2--2--2--|
--2--2--2--2--2--2--2--2--|--------------------------|


     PM    PM     PM                 PM                   
  E  E  E  E  E.  S  S S  S  S    E  E  Q    E  E  E  E   
-------------------------------|-------------------------|
-------------------------------|-------------------------|
--4-----4-----4---x--4---------|--6-----6----6--6--6--6--|
--4-----4-----4---x--4-Ls-5s-6-|--6-----6----6--6--6--6--|
--2--2--2--2--2---x--2-Ls-3s-4-|--4--4--4----4--4--4--4--|
-------------------------------|-------------------------|


  S S  S S S  S  E  S S S S Q        E  S S S S S S S S E  S E  S  
----------------------------------|-------------------------------|
----------------------------------|---------x-x-x-x-x-----------x-|
----------------------------------|---------x-x-x-x-x-----------x-|
----------------------------------|-----------------------------x-|
---------0------/4--3-2-0-2-------|--4--4-2-----------2-4--4-2----|
--0-1h-2---2p-0-------------5~----|--2--2-0-----------0-2--2-0----|


  E  S S S S S S S S E  Q       E  S S S S S S S S E  S E  S  
-----------------------------|-------------------------------|
---------x-x-x-x-x-----------|---------x-x-x-x-x-----------x-|
---------x-x-x-x-x-----------|---------x-x-x-x-x-----------x-|
------------------------2----|-----------------------------x-|
--4--4-2-----------2-4--0----|--4--4-2-----------2-4--4-2----|
--2--2-0-----------0-2-------|--2--2-0-----------0-2--2-0----|


  E  S S S S S S S S E  Q       W                   W                 
-----------------------------|-------------------|-------------------|
---------x-x-x-x-x-----------|-------------------|-------------------|
---------x-x-x-x-x-----------|-------------------|-------------------|
------------------------2----|-------------------|-------------------|
--4--4-2-----------2-4--0----|-------------------|-------------------|
--2--2-0-----------0-2-------|-------------------|-------------------|


                                                 PM    PM    PM    PM  
  W                   H        Q     Q        E  E  E  E  E  E  E  E   
-------------------|-----------------------|--------------------------|
-------------------|-----------------------|--------------------------|
-------------------|-----------------------|--4-----4-----4-----4-----|
-------------------|-----------------------|--4-----4-----4-----4-----|
-------------------|-----------------------|--2--2--2--2--2--2--2--2--|
-------------------|----------------12\----|--------------------------|


     PM    PM    PM    PM       PM    PM    PM    PM  
  E  E  E  E  E  E  E  E     E  E  E  E  E  E  E  E   
--------------------------|--------------------------|
--------------------------|--------------------------|
--4-----4-----4-----4-----|--------------------------|
--4-----4-----4-----4-----|--4-----4-----4-----4-----|
--2--2--2--2--2--2--2--2--|--4-----4-----4-----4-----|
--------------------------|--2--2--2--2--2--2--2--2--|


     PM    PM    PM    PM       PM    PM    PM    PM  
  E  E  E  E  E  E  E  E     E  E  E  E  E  E  E  E   
--------------------------|--------------------------|
--------------------------|--------------------------|
--------------------------|--4-----4-----4-----4-----|
--4-----4-----4-----4-----|--4-----4-----4-----4-----|
--4-----4-----4-----4-----|--2--2--2--2--2--2--2--2--|
--2--2--2--2--2--2--2--2--|--------------------------|


     PM    PM     PM                 PM PM PM PM PM PM PM  
  E  E  E  E  E.  S  S S  S  S    E  E  E  E  E  E  E  E   
-------------------------------|--------------------------|
-------------------------------|--------------------------|
--4-----4-----4---x--4---------|--6-----6--6--6--6--6--6--|
--4-----4-----4---x--4-Ls-5s-6-|--6-----6--6--6--6--6--6--|
--2--2--2--2--2---x--2-Ls-3s-4-|--4--4--4--4--4--4--4--4--|
-------------------------------|--------------------------|


  E  H        Q    E     E  S S S S S S S S E  S E  S  
----------------------|-------------------------------|
----------------------|---------x-x-x-x-x-----------x-|
--6-------------------|---------x-x-x-x-x-----------x-|
--6-------------------|-----------------------------x-|
--4-------------------|--4--4-2-----------2-4--4-2----|
----------------------|--2--2-0-----------0-2--2-0----|


  E  S S S S S S S S E  Q       E  S S S S S S S S E  S E  S  
-----------------------------|-------------------------------|
---------x-x-x-x-x-----------|---------x-x-x-x-x-----------x-|
---------x-x-x-x-x-----------|---------x-x-x-x-x-----------x-|
------------------------2----|-----------------------------x-|
--4--4-2-----------2-4--0----|--4--4-2-----------2-4--4-2----|
--2--2-0-----------0-2-------|--2--2-0-----------0-2--2-0----|


  E  S S S S S S S S E  Q       E  S S S S S S S S E  S E  S  
-----------------------------|-------------------------------|
---------x-x-x-x-x-----------|---------x-x-x-x-x-----------x-|
---------x-x-x-x-x-----------|---------x-x-x-x-x-----------x-|
------------------------2----|-----------------------------x-|
--4--4-2-----------2-4--0----|--4--4-2-----------2-4--4-2----|
--2--2-0-----------0-2-------|--2--2-0-----------0-2--2-0----|


  E  S S S S S S S S E  Q       E  S S S S S S S S E  S E  S  
-----------------------------|-------------------------------|
---------x-x-x-x-x-----------|---------x-x-x-x-x-----------x-|
---------x-x-x-x-x-----------|---------x-x-x-x-x-----------x-|
------------------------2----|-----------------------------x-|
--4--4-2-----------2-4--0----|--4--4-2-----------2-4--4-2----|
--2--2-0-----------0-2-------|--2--2-0-----------0-2--2-0----|


                                   PM    PM    PM    PM  
  E  S S S S S S S S E  Q       E  E  E  E  E  E  E  E   
-----------------------------|--------------------------|
---------x-x-x-x-x-----------|--------------------------|
---------x-x-x-x-x-----------|--4-----4-----4-----4-----|
------------------------2----|--4-----4-----4-----4-----|
--4--4-2-----------2-4--0----|--2--2--2--2--2--2--2--2--|
--2--2-0-----------0-2-------|--------------------------|


     PM    PM    PM    PM       PM    PM    PM    PM  
  E  E  E  E  E  E  E  E     E  E  E  E  E  E  E  E   
--------------------------|--------------------------|
--------------------------|--------------------------|
--4-----4-----4-----4-----|--------------------------|
--4-----4-----4-----4-----|--4-----4-----4-----4-----|
--2--2--2--2--2--2--2--2--|--4-----4-----4-----4-----|
--------------------------|--2--2--2--2--2--2--2--2--|


     PM    PM    PM    PM       PM    PM    PM    PM  
  E  E  E  E  E  E  E  E     E  E  E  E  E  E  E  E   
--------------------------|--------------------------|
--------------------------|--------------------------|
--------------------------|--4-----4-----4-----4-----|
--4-----4-----4-----4-----|--4-----4-----4-----4-----|
--4-----4-----4-----4-----|--2--2--2--2--2--2--2--2--|
--2--2--2--2--2--2--2--2--|--------------------------|


     PM    PM     PM                 PM PM PM PM PM PM PM  
  E  E  E  E  E.  S  S S  S  S    E  E  E  E  E  E  E  E   
-------------------------------|--------------------------|
-------------------------------|--------------------------|
--4-----4-----4---x--4---------|--6-----6--6--6--6--6--6--|
--4-----4-----4---x--4-Ls-5s-6-|--6-----6--6--6--6--6--6--|
--2--2--2--2--2---x--2-Ls-3s-4-|--4--4--4--4--4--4--4--4--|
-------------------------------|--------------------------|


  S S  S S S  S  E  S S S S S  S S S    S S S S S S S S Q      
-------------------------------------|------------------------|
-------------------------------------|------------------------|
-------------------------------------|------------------------|
---------------------------------2---|------4-3-2-------------|
---------0------/4--3-2-0-2-3h-4---4-|--3-2-------4-3-2-------|
--0-1h-2---2p-0----------------------|------------------5~----|


  E  S S S S S S S S E  S E  S    E  S S S S S S S S E  Q     
-------------------------------|-----------------------------|
---------x-x-x-x-x-----------x-|---------x-x-x-x-x-----------|
---------x-x-x-x-x-----------x-|---------x-x-x-x-x-----------|
-----------------------------x-|------------------------2----|
--4--4-2-----------2-4--4-2----|--4--4-2-----------2-4--0----|
--2--2-0-----------0-2--2-0----|--2--2-0-----------0-2-------|


  E  S S S S S S S S E  S E  S    E  S S S S S S S S E  Q     
-------------------------------|-----------------------------|
---------x-x-x-x-x-----------x-|---------x-x-x-x-x-----------|
---------x-x-x-x-x-----------x-|---------x-x-x-x-x-----------|
-----------------------------x-|------------------------2----|
--4--4-2-----------2-4--4-2----|--4--4-2-----------2-4--0----|
--2--2-0-----------0-2--2-0----|--2--2-0-----------0-2-------|


     PM    PM    PM    PM       PM    PM    PM    PM  
  E  E  E  E  E  E  E  E     E  E  E  E  E  E  E  E   
--------------------------|--------------------------|
--------------------------|--------------------------|
--4-----4-----4-----4-----|--4-----4-----4-----4-----|
--4-----4-----4-----4-----|--4-----4-----4-----4-----|
--2--2--2--2--2--2--2--2--|--2--2--2--2--2--2--2--2--|
--------------------------|--------------------------|


     PM    PM    PM    PM       PM    PM    PM    PM  
  E  E  E  E  E  E  E  E     E  E  E  E  E  E  E  E   
--------------------------|--------------------------|
--------------------------|--------------------------|
--------------------------|--------------------------|
--4-----4-----4-----4-----|--4-----4-----4-----4-----|
--4-----4-----4-----4-----|--4-----4-----4-----4-----|
--2--2--2--2--2--2--2--2--|--2--2--2--2--2--2--2--2--|


     PM    PM    PM    PM       PM    PM     PM            
  E  E  E  E  E  E  E  E     E  E  E  E  E.  S  S S  S  S  
--------------------------|-------------------------------|
--------------------------|-------------------------------|
--4-----4-----4-----4-----|--4-----4-----4---x--4---------|
--4-----4-----4-----4-----|--4-----4-----4---x--4-Ls-5s-6-|
--2--2--2--2--2--2--2--2--|--2--2--2--2--2---x--2-Ls-3s-4-|
--------------------------|-------------------------------|


     PM PM PM PM PM PM PM                                     
  E  E  E  E  E  E  E  E     S S  S S S  S  E  S S S S Q      
--------------------------|----------------------------------|
--------------------------|----------------------------------|
--6-----6--6--6--6--6--6--|----------------------------------|
--6-----6--6--6--6--6--6--|----------------------------------|
--4--4--4--4--4--4--4--4--|---------0------/4--3-2-0-2-------|
--------------------------|--0-1h-2---2p-0-------------5~----|


  E  S S S S S S S S E  S E  S    E  S S S S S S S S E  Q     
-------------------------------|-----------------------------|
---------x-x-x-x-x-----------x-|---------x-x-x-x-x-----------|
---------x-x-x-x-x-----------x-|---------x-x-x-x-x-----------|
-----------------------------x-|------------------------2----|
--4--4-2-----------2-4--4-2----|--4--4-2-----------2-4--0----|
--2--2-0-----------0-2--2-0----|--2--2-0-----------0-2-------|


  E  S S S S S S S S E  S E  S    E  S S S S S S S S E  Q     
-------------------------------|-----------------------------|
---------x-x-x-x-x-----------x-|---------x-x-x-x-x-----------|
---------x-x-x-x-x-----------x-|---------x-x-x-x-x-----------|
-----------------------------x-|------------------------2----|
--4--4-2-----------2-4--4-2----|--4--4-2-----------2-4--0----|
--2--2-0-----------0-2--2-0----|--2--2-0-----------0-2-------|


  E  S S S S S S S S E  S E  S    E  S S S S S S S S E  Q     
-------------------------------|-----------------------------|
---------x-x-x-x-x-----------x-|---------x-x-x-x-x-----------|
---------x-x-x-x-x-----------x-|---------x-x-x-x-x-----------|
-----------------------------x-|------------------------2----|
--4--4-2-----------2-4--4-2----|--4--4-2-----------2-4--0----|
--2--2-0-----------0-2--2-0----|--2--2-0-----------0-2-------|


  E  S S S S S S S S E  S E  S    E  S S S S S S S S E  Q     
-------------------------------|-----------------------------|
---------x-x-x-x-x-----------x-|---------x-x-x-x-x-----------|
---------x-x-x-x-x-----------x-|---------x-x-x-x-x-----------|
-----------------------------x-|------------------------2----|
--4--4-2-----------2-4--4-2----|--4--4-2-----------2-4--0----|
--2--2-0-----------0-2--2-0----|--2--2-0-----------0-2-------|


  E  S S S S S S S S E  S E  S    E  S S S S S S S S E  Q     
-------------------------------|-----------------------------|
---------x-x-x-x-x-----------x-|---------x-x-x-x-x-----------|
---------x-x-x-x-x-----------x-|---------x-x-x-x-x-----------|
-----------------------------x-|------------------------2----|
--4--4-2-----------2-4--4-2----|--4--4-2-----------2-4--0----|
--2--2-0-----------0-2--2-0----|--2--2-0-----------0-2-------|


  E  S S S S S S S S E  S E  S    E  S S S S S S S S E  Q      
-------------------------------|-----------------------------||
---------x-x-x-x-x-----------x-|---------x-x-x-x-x-----------||
---------x-x-x-x-x-----------x-|---------x-x-x-x-x-----------||
-----------------------------x-|------------------------2----||
--4--4-2-----------2-4--4-2----|--4--4-2-----------2-4--0----||
--2--2-0-----------0-2--2-0----|--2--2-0-----------0-2-------||



=====================================================================
=====================================================================

Guitar - solo



E||-------|-------|-------|-------|-------|-------|-------|-------|-------|
B||-------|-------|-------|-------|-------|-------|-------|-------|-------|
G||-------|-------|-------|-------|-------|-------|-------|-------|-------|
D||-------|-------|-------|-------|-------|-------|-------|-------|-------|
A||-------|-------|-------|-------|-------|-------|-------|-------|-------|
E||-------|-------|-------|-------|-------|-------|-------|-------|-------|



   S   S  S  S   S   S   S   S  S  S  S  Q     S     H          Q      Q      
---------17--------------------------------------|--19b--------19b----19b----|
-------------------------------------------------|---------------------------|
--16s-18----18p-17s-16h-17p-16-------------------|---------------------------|
-------------------------------19-16----16b------|---------------------------|
-------------------------------------19----------|---------------------------|
-------------------------------------------------|---------------------------|


   S  H          Q      E   S   
--17-----------------------17b-|
-----19~--------19~-----L------|
-------------------------------|
-------------------------------|
-------------------------------|
-------------------------------|


   E.    S  S   S  S  E     S   S  S  S   S  S  S  
---Lh---------------------------------------------|
--------14-19p-14---------------------------------|
------------------14-------14b-----------14-16-14-|
---------------------16br------14-16-16b----------|
--------------------------------------------------|
--------------------------------------------------|


   S     S  S   S  S   S  S  S  S   S  S  S  Q      
-------------------------------19b-17-14-----------|
--16pbr-14--------19s-17-14-17---------------------|
-----------14s-16------------------------16-14~----|
---------------------------------------------------|
---------------------------------------------------|
---------------------------------------------------|


   S   S  S  S  S   S  S  S   S  S  S  S   S  S. S. 
---------------------------------------------------|
--17p-14-----------------17p-14--------------------|
---------17-17-16p-14-----------17-17-16p-14-------|
----------------------16---------------------------|
---------------------------------------------16-14-|
---------------------------------------------------|


   S. S. S. S. S  S  S  E     S  S  E   S   
---------------------------------------14s-|
-------------------------------------------|
-----------------------16br--14----14------|
-----------------14-16----------16---------|
--12----12-14-16---------------------------|
-----14------------------------------------|


   |-----5-----|  |-----5-----|  |-----5-----|  |-----5-----|  
   S  S  S  S  S  S  S  S  S  S  S  S  S  S  S  S  S  S  S  S  
--19-14-14-14-------------------------------------------------|
--------------14-19-14-15-14----------------------------------|
-----------------------------14-18-14----14-------------------|
--------------------------------------18----18-14-18-14-------|
--------------------------------------------------------18-14-|
--------------------------------------------------------------|


  PM PM PM PM PM PM PM PM PM          W                                  
  |--3--|  |--3--|  |--3--|                                              
  E  E  E  E  E  E  E  E  E  Q        H.           Q                     
-----------------------------------|--------------------|-------|-------|
-----------------------------------|--------------------|-------|-------|
-----------------------------------|--------------------|-------|-------|
-----------------------------4b----|--4-----------------|-------|-------|
--7--------7-----------------------|--------------------|-------|-------|
-----9--8-----9--8--7--5--2--------|--------------------|-------|-------|







Duration Legend
---------------
W - whole
H - half
Q - quarter
E - 8th
S - 16th
T - 32nd
X - 64th
. - note dotted
|-n-|  - n-tuplets


Tablature Legend
----------------
L - tied note
x - dead note
g - grace note
(n) - ghost note
> - accentuded note
NH - natural harmonic
AH - artificial harmonic
TH - tapped harmonic
SH - semi harmonic
PH - pitch harmonic
h - hammer on
p - pull off
b - bend
br - bendRelease
pb - preBend
pbr - preBendRelease
brb - bendReleaseBend
\n/ - tremolo bar dip
\n - tremolo bar dive
-/n - tremolo bar Release up
/n\ - tremolo bar inverted dip
/n - tremolo bar return
-\n - tremolo bar Release down
S - shift slide
s - legato slide
/ -  slide into from below or out of upwards
\ -  slide into from above or out of downwards
~ - vibrato
W - wide vibrato
tr - trill
TP - tremolo picking
T - tapping
S - slap
P - pop
< - fade in
^ - brush up
v - brush down
comments
We did not receive enough feedback on this tab! Please rate:
print report bad tab
1 2 3 4 5
I want to post or [tab]
guest
You may want to rate the tab now too:
select rating
Please do not post tabs as comments. Select "correction" instead!