Oops, an error
Loading. Please wait.

What You Say Tab

ver1
ver1

Whole song

Interactive

More versions @911Tabs.com
171 views 1 this week
no commentswrite comment
1 2 3 4 5
please rate
add to favorites launch autoscroll
font size
0
reset
Autoscroll
+/-
esc
set tempo
stop
Contributor
Difficulty
intermediate
WARNING: You are trying to view
                                    content from Ultimate-Guitar.com
                                    in an unauthorized application,
                                    which is prohibited.

                                    Please use an official Ultimate
                                    Guitar Tabs application for iPhone,
                                    iPad or Android to access legitimate
                                    chords, guitar, bass, and drum tabs
                                    from Ultimate-Guitar.com database.

                                    Type "ultimate guitar tabs" in Apple
                                    App Store's or Android Market's
                                    search to find the application.
-----------------------------------------------------------------------------
                  What You Say  - Saigon Kick  (GUITAR)
                       
-----------------------------------------------------------------------------
Tabbed by: Scotto10

Tuning: Standard

=============================================================================

                         

Guitar 1



     H        Q    S E.      W                   H.           S E.    
E||-----------------------|-------------------|----------------------|
B||-----------------------|-------------------|----------------------|
G||-----------------------|--2----------------|--L-------------------|
D||-----------------------|--2----------------|--L-------------------|
A||-----------------------|--0----------------|--L-------------------|
E||------------------3b---|-------------------|-----------------3b---|


  W                   W                   H.           E  S S  
-------------------|-------------------|----------------------|
-------------------|-------------------|--3------------L------|
--2----------------|--L----------------|--0------------L--x-x-|
--2----------------|--L----------------|--0------------L--x-x-|
--0----------------|--L----------------|------------------x-x-|
-------------------|-------------------|--3------------L------|


  H.           S E.      W                   H.           S E.    
----------------------|-------------------|----------------------|
--3-------------------|-------------------|----------------------|
--2-------------------|--2----------------|--L-------------------|
--0-------------------|--2----------------|--L-------------------|
----------------------|--0----------------|--L-------------------|
-----------------3b---|-------------------|-----------------3b---|


  W                   H.           S E.      W                 
-------------------|----------------------|-------------------|
-------------------|----------------------|-------------------|
--2----------------|--L-------------------|--2----------------|
--2----------------|--L-------------------|--2----------------|
--0----------------|--L-------------------|--0----------------|
-------------------|-----------------3b---|-------------------|


  W                   H.           E  S S    H.           S E.    
-------------------|----------------------|----------------------|
-------------------|--3------------L------|--3-------------------|
--L----------------|--0------------L--x-x-|--2-------------------|
--L----------------|--0------------L--x-x-|--0-------------------|
--L----------------|------------------x-x-|----------------------|
-------------------|--3------------L------|-----------------3b---|


  W                   H        S E.   Q        H        S S   Q    S S  
-------------------|------------------------|--------------------------|
-------------------|------------------------|--------------------------|
--2----------------|--L--------L------------|-----------x-x--------x-x-|
--2----------------|--L--------L------------|-----------x-x--------x-x-|
--0----------------|--L--------L------------|--7--------x-x-5g7----x-x-|
-------------------|-------------3b---3b----|--5------------5g5--------|


    H        S Q.     S    H        S S Q    S S      H        S E.   Q      
------------------------|------------------------|--------------------------|
------------------------|------------------------|--------------------------|
------------------------|-------------x------x-x-|--------------------------|
--6g7--------L-5------L-|-------------x------x-x-|--6g7--------L------------|
--4g5--------L-5------L-|--7--------L-x-7----x-x-|--4g5--------L------------|
---------------3------L-|--5--------L---5--------|---------------3b---3b----|


  H        S S   Q    S S      H        S Q.     S    H        S S Q    S S  
--------------------------|------------------------|------------------------|
--------------------------|------------------------|------------------------|
-----------x-x--------x-x-|------------------------|-------------x------x-x-|
-----------x-x--------x-x-|--6g7--------L-5------L-|-------------x------x-x-|
--7--------x-x-5g7----x-x-|--4g5--------L-5------L-|--7--------L-x-7----x-x-|
--5------------5g5--------|---------------3------L-|--5--------L---5--------|


  H        S E.   Q        W                   H.           S E.    
------------------------|-------------------|----------------------|
------------------------|-------------------|----------------------|
------------------------|--2----------------|--L-------------------|
--7--------L------------|--2----------------|--L-------------------|
--5--------L------------|--0----------------|--L-------------------|
-------------3b---3b----|-------------------|-----------------3b---|


  W                   W                   W                 
-------------------|-------------------|-------------------|
-------------------|-------------------|-------------------|
--2----------------|--L----------------|--0----------------|
--2----------------|--L----------------|--0----------------|
--0----------------|--L----------------|-------------------|
-------------------|-------------------|--3----------------|


  H.           S E.      W                   H.           S E.    
----------------------|-------------------|----------------------|
--3------------L------|-------------------|----------------------|
--2------------L------|--2----------------|--L------------L------|
--0------------L------|--2----------------|--L------------L------|
----------------------|--0----------------|--L------------L------|
-----------------3b---|-------------------|-----------------3b---|


  W                   H.           S E.      W                 
-------------------|----------------------|-------------------|
-------------------|----------------------|-------------------|
--2----------------|--L------------L------|--2----------------|
--2----------------|--L------------L------|--2----------------|
--0----------------|--L------------L------|--0----------------|
-------------------|-----------------3b---|-------------------|


  W                   W                   H.           S E.    
-------------------|-------------------|----------------------|
-------------------|-------------------|--3------------L------|
--L----------------|--0----------------|--2------------L------|
--L----------------|--0----------------|--0------------L------|
--L----------------|-------------------|----------------------|
-------------------|--3----------------|-----------------3b---|


  W                   H.           S E.      H        S S   Q    S S  
-------------------|----------------------|--------------------------|
-------------------|----------------------|--------------------------|
--2----------------|--L------------L------|-----------x-x--------x-x-|
--2----------------|--L------------L------|-----------x-x--------x-x-|
--0----------------|--L------------L------|--7--------x-x-5g7----x-x-|
-------------------|-----------------3b---|--5------------5g5--------|


    H        S Q.     S    H        S S Q    S S      H        S E.   Q      
------------------------|------------------------|--------------------------|
------------------------|------------------------|--------------------------|
------------------------|-------------x------x-x-|--------------------------|
--6g7--------L-5------L-|-------------x------x-x-|--6g7--------L------------|
--4g5--------L-5------L-|--7--------L-x-7----x-x-|--4g5--------L------------|
---------------3------L-|--5--------L---5--------|---------------3b---3b----|


  H        S S   Q    S S      H        S Q.     S    H        S S Q    S S  
--------------------------|------------------------|------------------------|
--------------------------|------------------------|------------------------|
-----------x-x--------x-x-|------------------------|-------------x------x-x-|
-----------x-x--------x-x-|--6g7--------L-5------L-|-------------x------x-x-|
--7--------x-x-5g7----x-x-|--4g5--------L-5------L-|--7--------L-x-7----x-x-|
--5------------5g5--------|---------------3------L-|--5--------L---5--------|


                              PM PM    PM PM    PM PM       
  H        S E.   Q        E  S  S  E  S  S  E  S  S  Q     
------------------------|----------------------------------|
------------------------|----------------------------------|
------------------------|----------------------------------|
--7--------L------------|----------------------------------|
--5--------L------------|--5--------5--------5--------5----|
-------------3b---3b----|--3--3--3--3--3--3--3--3--3--3----|


     PM PM    PM PM    PM PM              PM PM    PM PM    PM PM       
  E  S  S  E  S  S  E  S  S  E  E      E  S  S  E  S  S  E  S  S  Q     
------------------------------------|----------------------------------|
------------------------------------|----------------------------------|
------------------------------------|----------------------------------|
--------------------5--------5------|----------------------------------|
--3--------3--------3--3--3--3------|--5--------5--------5--------5----|
--1--1--1--1--1--1--------------1b--|--3--3--3--3--3--3--3--3--3--3----|


     PM PM    PM PM    PM PM                                 
  E  S  S  E  S  S  E  S  S  E  E      H        S Q    E  S  
------------------------------------|-----------------------|
------------------------------------|-----------------------|
------------------------------------|--2----------2----L--x-|
--------------------5--------5------|--2----------2----L--x-|
--3--------3--------3--3--3--3------|--0--------3-0----L----|
--1--1--1--1--1--1--------------1b--|-----------------------|


           PM                                              PM           
  H        S  E.  Q       H        S Q    E  S    H        S  E.  Q     
-----------------------|-----------------------|-----------------------|
--3--------3-----------|-----------------------|--3--------3-----------|
--2--------2--0---L----|--2----------2----L--x-|--2--------2--0---L----|
--0--------0--0---L----|--2----------2----L--x-|--0--------0--0---L----|
-----------------------|--0--------3-0----L----|-----------------------|
--------------3---L----|-----------------------|--------------3---L----|


                                   PM                                   
  H        S Q    E  S    H        S  E.  Q       H        S Q    E  S  
-----------------------|-----------------------|-----------------------|
-----------------------|--3--------3-----------|-----------------------|
--2----------2----L--x-|--2--------2--0---L----|--2----------2----L--x-|
--2----------2----L--x-|--0--------0--0---L----|--2----------2----L--x-|
--0--------3-0----L----|-----------------------|--0--------3-0----L----|
-----------------------|--------------3---L----|-----------------------|


  H        S E.   Q        W                   H.           S E.    
------------------------|-------------------|----------------------|
--3--------L------------|-------------------|----------------------|
--2--------L------------|--2----------------|--L------------L------|
--0--------L------------|--2----------------|--L------------L------|
------------------------|--0----------------|--L------------L------|
-------------3b---3b----|-------------------|-----------------3b---|


  W                   W                   W                 
-------------------|-------------------|-------------------|
-------------------|-------------------|-------------------|
--2----------------|--L----------------|--0----------------|
--2----------------|--L----------------|--0----------------|
--0----------------|--L----------------|-------------------|
-------------------|-------------------|--3----------------|


  H.           S E.      W                   H.           S E.    
----------------------|-------------------|----------------------|
--3------------L------|-------------------|----------------------|
--2------------L------|--2----------------|--L------------L------|
--0------------L------|--2----------------|--L------------L------|
----------------------|--0----------------|--L------------L------|
-----------------3b---|-------------------|-----------------3b---|


  W                   H.           S E.      E  H        Q.      
-------------------|----------------------|---------------------|
-------------------|----------------------|---------------------|
--2----------------|--L------------L------|--2------------------|
--2----------------|--L------------L------|--2------------------|
--0----------------|--L------------L------|--0------------------|
-------------------|-----------------3b---|---------------------|


  W                   W                   H.           S E.    
-------------------|-------------------|----------------------|
-------------------|-------------------|--3------------L------|
-------------------|--0----------------|--2------------L------|
-------------------|--0----------------|--0------------L------|
-------------------|-------------------|----------------------|
-------------------|--3----------------|-----------------3b---|


  W                   H.           S E.      H        S S   Q    S S  
-------------------|----------------------|--------------------------|
-------------------|----------------------|--------------------------|
--2----------------|--L------------L------|-----------x-x--------x-x-|
--2----------------|--L------------L------|-----------x-x--------x-x-|
--0----------------|--L------------L------|--7--------x-x-5g7----x-x-|
-------------------|-----------------3b---|--5------------3g5--------|


    H        S Q.     S    H        S S Q    S S      H        S E.   Q      
------------------------|------------------------|--------------------------|
------------------------|------------------------|--------------------------|
------------------------|-------------x------x-x-|--------------------------|
--6g7--------L-5------L-|-------------x------x-x-|--6g7--------L------------|
--4g5--------L-5------L-|--7--------L-x-7----x-x-|--4g5--------L------------|
---------------3------L-|--5--------L---5--------|---------------3b---3b----|


  H        S S   Q    S S      H        S Q.     S    H        S S Q    S S  
--------------------------|------------------------|------------------------|
--------------------------|------------------------|------------------------|
-----------x-x--------x-x-|------------------------|-------------x------x-x-|
-----------x-x--------x-x-|--6g7--------L-5------L-|-------------x------x-x-|
--7--------x-x-5g7----x-x-|--4g5--------L-5------L-|--7--------L-x-7----x-x-|
--5------------5g5--------|---------------3------L-|--5--------L---5--------|


  H        S E.   Q        W                   H        H         
------------------------|-------------------|--------------------|
------------------------|-------------------|--------------------|
------------------------|--2----------------|--5-----------------|
--7--------L------------|--2----------------|--5--------5--------|
--5--------L------------|--0----------------|--3--------5--------|
-------------3b---3b----|-------------------|-----------3--------|


  W                   H        H           W                 
-------------------|--------------------|-------------------|
-------------------|--------------------|-------------------|
--2----------------|--5-----------------|--2----------------|
--2----------------|--5--------5--------|--2----------------|
--0----------------|--3--------5--------|--0----------------|
-------------------|-----------3--------|-------------------|


  H        H           W                   H        H          
--------------------|-------------------|--------------------||
--------------------|-------------------|--------------------||
--5-----------------|--2----------------|--5-----------------||
--5--------5--------|--2----------------|--5--------5--------||
--3--------5--------|--0----------------|--3--------5--------||
-----------3--------|-------------------|-----------3--------||




===================================================================
===================================================================
===================================================================

Guitar solo




  H        Q    E   E      Q      S  S  E    S  S  S  E    S  S  S  
-----------------------|---------------18b--15-------20b--15-------|
-------------------15--|--18b----18-15---------18-15---------18-15-|
-----------------------|-------------------------------------------|
-----------------------|-------------------------------------------|
-----------------------|-------------------------------------------|
-----------------------|-------------------------------------------|


   E    S   S  S  S  E    S  S  S  S  S    S   S  S  
--17b--17p-15---------------------------------------|
--------------18-15-18b--18-15----15----------------|
-------------------------------17----17br-17p-15----|
-------------------------------------------------17-|
----------------------------------------------------|
----------------------------------------------------|


   E    E   E    S  S  E    E.      S  S  S  
--------------------------------------------|
--------------------------------------------|
--17b-----------------17b-------------------|
-------17--17p--15---------17brb---------17-|
-------------------17--------------17-17----|
--------------------------------------------|


   S  S  S  S  S  E   S   S   Q      E.      E   S  S  E   S  S  E  E  E  E   
------------------------------------------|-----12-12-12--10-10-10-----------|
------------------------------------------|----------------------------------|
-----17-----------------------------------|------9--9--9---7--7--7--6--4--6--|
--17----17-17-17-17-----------------------|----------------------------------|
---------------------17p-16p-15b-----L\---|----------------------------------|
------------------------------------------|----------------------------------|


                                               5 5  5 5 5  5 5  
  E   E  E  E  E   E  E  E     E   E  E   Q    S S  S S S. S S  
----------------------------|------------------5-4s-2---2------|
----------------------------|-------------------------1----1-0-|
--6b--6--4--6--6b--6--4--2--|--4b--2--4b--2--------------------|
----------------------------|----------------------------------|
----------------------------|----------------------------------|
----------------------------|----------------------------------|


  S S E   Q    E.  E.  E     E.  E.  E  E.  E.  E     E  E  H.             
--------------------------|------------------------|----------------------|
---------------2---3---5--|--2---3---5--8---7---5--|----------------------|
--2---4b--2----2---2---2--|--2---2---2--7---7---7--|--0--0--2~------------|
----4---------------------|------------------------|--0--0--0~------------|
--------------------------|------------------------|----------------------|
--------------------------|------------------------|----------------------|


   S   S  S  S S  S S  S S  S S  S  S   E   S     S. S. S. S. S. S. S  Q.       
----------------------------------------------|--17----19----20----22-22b------|
-------------------------------------------17-|-----17----17----17-------------|
--11s-12-12-12---12---12---12---12-12s-14-----|--------------------------------|
----------------------------------------------|--------------------------------|
---9s-10-10-10---10---10---10---10-10s-12-----|--------------------------------|
----------------------------------------------|--------------------------------|


   H            H               E   H        Q    E                            
--22brb--------22brb--------|--22\-------------------|----|----|----|----|----|
----------------------------|------------------------|----|----|----|----|----|
----------------------------|------------------------|----|----|----|----|----|
----------------------------|------------------------|----|----|----|----|----|
----------------------------|------------------------|----|----|----|----|----|
----------------------------|------------------------|----|----|----|----|----|
comments
We did not receive enough feedback on this tab! Please rate:
print report bad tab
1 2 3 4 5
I want to post or [tab]
guest
You may want to rate the tab now too:
select rating
Please do not post tabs as comments. Select "correction" instead!