Oops, an error
Loading. Please wait.

Push It Bass Tab

5,431 views 24 this week
2 commentsread comments
1 2 3 4 5
worth learning
x 3
add to favorites launch autoscroll
font size
0
reset
Autoscroll
+/-
esc
set tempo
stop
Contributor
Difficulty
WARNING: You are trying to view
                                    content from Ultimate-Guitar.com
                                    in an unauthorized application,
                                    which is prohibited.

                                    Please use an official Ultimate
                                    Guitar Tabs application for iPhone,
                                    iPad or Android to access legitimate
                                    chords, guitar, bass, and drum tabs
                                    from Ultimate-Guitar.com database.

                                    Type "ultimate guitar tabs" in Apple
                                    App Store's or Android Market's
                                    search to find the application.
Artist: Salt-N-Peppa
Song: Push It
Tuning: Standard


h - hammer


G |------------------------------------3-5-3---|
D |---7-5-7--3-5-----7-5-7--3-5--3-5-3---------|
A |--------------------------------------------| - 3 times
E |--------------------------------------------|


G |------------------------------------3-5-3---|
D |---7-5-7--3-5-----7-5-7--3-5--3-5-3---------|
A |--------------------------------------------| - 3 times
E |--------------------------------------------|


G |-------------------------------------------------------------------------------------|
D |-------------------------------------------------------------------------------------|
A |---------------------------------------------------1-3-1-----------------------------|
E |---5-3-5--1-3-----5-3-5--1-3-----5-3-5--1-3--1-3-1---------5-3-5--1-3--1-3-1-8-7-5---|


G |---------------------------------------------------------------|
D |---------------------------------------------------------------|
A |---------------------------------------------------------------|
E |---5--1h3---3h5--1h3---5-6-8-6---5--1h3----3h5----1h3----5h7---|


G |-------------------------------------------------------------------------------------|
D |-------------------------------------------------------------------------------------|
A |-----------------------------------1-3-1-------------------------------------1-3-1---|
E |---5-3-5--1-3----5-3-5--1-3--1-3-1-----------5-3-5--1-3----5-3-5--1-3--1-3-1---------|


G |--------------------------------------------------|
D |--------------------------------------------------|
A |--------------------------------------------------|
E |---1h3----3h5----1h3----6-8-6-3-5----3h5----1h3---|


G |-------------------------------------------------------------------|
D |-------------------------------------------------------------------|
A |-----------------------------------------------------------1-3-1---|
E |---5--3-5-1-3----5--3-5-1-3----5--3-5-1-3----5--3-5-1-3--1---------|

G |-------------------------------------|
D |-------------------------------------|
A |-------------------------------------|
E |---5--3-5-1-3----5--3-5-1-3--8-7-5---|


G |--------------------------------------|
D |--------------------------------------|
A |--------------------------------------|
E |---5---1h3----3h5---1h3---5-7-5-3-5---|


G |---------------------------------|
D |---------------------------------|
A |---------------------------------|
E |---7-4-1---5---1h3---3h5---1h3---|


That's it, it's correct, there are some places where there is no bass so you have to 
I just had to do this tab because the song is featured in the Nextel commercial which I 
is hilarious, so here it is.
comments
We did not receive enough feedback on this tab! Please rate:
1 2 3 4 5
2 comments total.
0 reply
RyanZilla wrote on March 7 2014, 12:50 pm, edited at 12:54 pm

You've made it way more difficult than it needs to be.
A ---------------------------2--3--2----
E -5--0--5--0--3--0--3-------------2

0 reply
RyanZilla wrote on March 7 2014, 12:55 pm

2--3--2---
---------2
sorry

I want to post or [tab]
guest
You may want to rate the tab now too:
select rating
Please do not post tabs as comments. Select "correction" instead!