Oops, an error
Loading. Please wait.

Push It Tab

ver1
ver1

Intro

Whole song

Interactive

More versions @911Tabs.com
15,490 views 15 this week
4 commentsread comments
1 2 3 4 5
excellent!
x 9
Autoscroll
+/-
esc
set tempo
stop
Contributor
Hey! There's an official Ultimate Guitar app which is ideal
for learning songs when you're away from computer. Get the app
WARNING: You are trying to view
                                    content from Ultimate-Guitar.com
                                    in an unauthorized application,
                                    which is prohibited.

                                    Please use an official Ultimate
                                    Guitar Tabs application for iPhone,
                                    iPad or Android to access legitimate
                                    chords, guitar, bass, and drum tabs
                                    from Ultimate-Guitar.com database.

                                    Type "ultimate guitar tabs" in Apple
                                    App Store's or Android Market's
                                    search to find the application.
E-----------------------|
B-----------------------|
G----2-0----------------|
D--0-----3-2-----2-3-2--|
A------------3-3-------3|
E-----------------------|
comments
print report bad tab
4 comments total. Showing first comments.
0 reply
AAF_Bizkit wrote on April 20 2002, 12:00 am

salt n pepper blow your dogs analcrevis

0 reply
bropark08 wrote on September 17 2006, 06:07 pm

this tab is absolutely wrong, but by itself it sounds good haha. thanks anyways

+5 reply
Nunwhxre 666 wrote on November 2 2006, 06:17 am

It would actually be played like this
|------------------------------------|-------------------------------------|
|----17-15---------------------------|----17-15----------------------------|
|-14-------17-16---------16-17-16----|-14-------17-16----------16-17-16----|
|----------------(14)-17----------17-|----------------17-15-17----------17-|
|------------------------------------|-------------------------------------|
|------------------------------------|-------------------------------------|

I want to post or [tab]
guest
You may want to rate the tab now too:
select rating
Please do not post tabs as comments. Select "correction" instead!