Oops, an error
Loading. Please wait.

Heavy Metal Tab

ver3
ver3

Intro

Whole song

Video

More versions @911Tabs.com
1,325 views 6 this week
no commentswrite comment
1 2 3 4 5
please rate
Autoscroll
+/-
esc
set tempo
stop
Contributor
Difficulty
intermediate
WARNING: You are trying to view
                                    content from Ultimate-Guitar.com
                                    in an unauthorized application,
                                    which is prohibited.

                                    Please use an official Ultimate
                                    Guitar Tabs application for iPhone,
                                    iPad or Android to access legitimate
                                    chords, guitar, bass, and drum tabs
                                    from Ultimate-Guitar.com database.

                                    Type "ultimate guitar tabs" in Apple
                                    App Store's or Android Market's
                                    search to find the application.
-----------------------------------------------------------------------------

                 Heavy Metal - Sammy Hagar (GUITAR)

-----------------------------------------------------------------------------
Tabbed by: Scotto10

Tuning: standard tuning

=============================================================================


Guitar 1



     Q    Q    Q    E  E     Q    E  H        E     Q    Q    S S S S S S S S
E||-----------------------|----------------------|----------------------------|
B||--------------------3--|----------3--------L--|----------------------------|
G||--2-----------------2--|--2-------2--------L--|--2-------------------------|
D||--2-----------------4--|--2-------0--------L--|--2-------------------------|
A||--0-----------------0--|--0-------------------|--0---------------0-4-0-----|
E||-----------------------|----------------------|--------------0-3-------3-0-|


  Q    E  H        E     Q    Q    E  S S S S S S    Q    E  H        E
----------------------|---------------------------|----------------------|
----------3--------L--|---------------------------|----------3--------L--|
--2-------2--------L--|--2------------------------|--2-------2--------L--|
--2-------0--------L--|--2------------------------|--2-------0--------L--|
--0-------------------|--0--------------0-4-0-----|--0-------------------|
----------------------|---------------3-------3-0-|----------------------|


  Q    Q    S S S S S S S S    Q    E  H        E     Q    Q    E  S S S S S S
----------------------------|----------------------|---------------------------|
----------------------------|----------3--------L--|---------------------------|
--2-------------------------|--2-------2--------L--|--2------------------------|
--2-------------------------|--2-------0--------L--|--2------------------------|
--0---------------0-4-0-----|--0-------------------|--0--------------0-4-0-----|
--------------0-3-------3-0-|----------------------|---------------3-------3-0-|


  Q    E  H        E     Q    H        Q       E  E  E  E  E  E  Q
----------------------|-------0--------0----|--L-----------------------|
----------3--------L--|-------0--------0----|--L-----------------------|
--2-------2--------L--|---------------------|--------------------7\----|
--2-------0--------L--|---------------------|--------------------7\----|
--0-------------------|---------------------|-----5--5--5--5-----5\----|
----------------------|--0----L--------L----|--L--3--3--3--3-----------|


  Q    Q    E  S S S S S S    Q    E  H        E     Q    Q    S S S S S S S S
---------------------------|----------------------|----------------------------|
---------------------------|----------3--------L--|----------------------------|
--2------------------------|--2-------2--------L--|--2-------------------------|
--2------------------------|--2-------0--------L--|--2-------------------------|
--0--------------0-4-0-----|--0-------------------|--0---------------0-4-0-----|
---------------3-------3-0-|----------------------|--------------0-3-------3-0-|


  Q    E  H        E     Q    Q    E  S S S S S S    Q    E  H        E
----------------------|---------------------------|----------------------|
----------3--------L--|---------------------------|----------3--------L--|
--2-------2--------L--|--2------------------------|--2-------2--------L--|
--2-------0--------L--|--2------------------------|--2-------0--------L--|
--0-------------------|--0--------------0-4-0-----|--0-------------------|
----------------------|---------------3-------3-0-|----------------------|


  E  S E  S Q    S S Q        E  S E  S Q      E   Q
---------------------------|------------------12--12-----|
-----------------8---8\----|------------------12--15~----|
-----------------7---7\----|-----------------------------|
---------------------------|-----------------------------|
---------------------------|-----------------------------|
--0--0-2--0-3--------------|--0--0-2--0-3/---------------|


                                                       PM PM PM PM PM PM PM
  E  S E  S Q    S S Q        E  E  Q    E  E  Q       E  E  E  E  E  E  E  E
---------------------------|------------------------|--------------------------|
-----------------8---8\----|------------------------|--------------------------|
-----------------7---7\----|------------------------|-----------------------7--|
---------------------------|------------------------|-----------------------7--|
---------------------------|--2--2-------5--5-------|--0--0--0--0--0--0--0--5--|
--0--0-2--0-3--------------|--0--0-------3--3-------|--------------------------|


  Q    Q    Q     E  E     Q    Q    Q     E  E     Q    E  Q.     E  E
------------------------|------------------------|------------------------|
------------------------|------------------------|------------------------|
--L------------------7--|--L---------------------|------------------------|
--L------------------7--|--L---------------------|------------------------|
--L----5----L\-------5--|--L----5----L\----------|------------------------|
-------3----L\----------|-------3----L\-------2--|--L-------3---------3s--|


  PM PM PM PM PM PM PM
  E  E  E  E  E  E  E  E     Q    Q    Q     E  E     Q    Q    Q     E  E
--------------------------|------------------------|------------------------|
--------------------------|------------------------|------------------------|
-----------------------7--|--L------------------7--|--L---------------------|
-----------------------7--|--L------------------7--|--L---------------------|
-----------------------5--|--L----5----L\-------5--|--L----5----L\----------|
--5--5--5--5--5--5--5-----|-------3----L\----------|-------3----L\-------2--|


                           PM PM PM PM PM PM PM
  Q    E  Q.     E  E      E  E  E  E  E  E  E  E     Q    Q    Q     E  E
------------------------|--------------------------|------------------------|
------------------------|--------------------------|------------------------|
------------------------|-----------------------7--|--L------------------7--|
------------------------|-----------------------7--|--L------------------7--|
------------------------|-----------------------5--|--L----5----L\-------5--|
--L-------3---------3s--|--5--5--5--5--5--5--5-----|-------3----L\----------|


  Q    Q    Q     E  E     Q    E  Q.     Q       W
------------------------|----------------------|-------------------|
------------------------|----------------------|-------------------|
--L---------------------|----------------------|-------------------|
--L---------------------|----------------------|--3----------------|
--L----5----L\----------|----------------------|--3----------------|
-------3----L\-------2--|--L-------3-----------|--1----------------|


  W                   Q    Q    E  S S S  S S S    Q    E  H        E
-------------------|----------------------------|----------------------|
-------------------|----------------------------|----------3--------L--|
-------------------|--2-------------------------|--2-------2--------L--|
--L----------------|--2-------------------------|--2-------0--------L--|
--L----------------|--0--------------0-4p-0-----|--0-------------------|
--L----------------|---------------3--------3-0-|----------------------|


  Q    Q    S S S S S  S S S    Q    E  H        E
-----------------------------|----------------------|
-----------------------------|----------3--------L--|
--2--------------------------|--2-------2--------L--|
--2--------------------------|--2-------0--------L--|
--0---------------0-4p-0-----|--0-------------------|
--------------0-3--------3-0-|----------------------|


  Q    Q    E  S S S  S S S    Q    E  H        E
----------------------------|----------------------|
----------------------------|----------3--------L--|
--2-------------------------|--2-------2--------L--|
--2-------------------------|--2-------0--------L--|
--0--------------0-4p-0-----|--0-------------------|
---------------3--------3-0-|----------------------|


  Q    Q    S S S S S  S S S    Q    E  H        E     Q    H        Q
-----------------------------|----------------------|-------0--------0----|
-----------------------------|----------3--------L--|-------0--------0----|
--2--------------------------|--2-------2--------L--|---------------------|
--2--------------------------|--2-------0--------L--|---------------------|
--0---------------0-4p-0-----|--0-------------------|---------------------|
--------------0-3--------3-0-|----------------------|--0----L--------L----|


  E  E  E  E  E  E  Q        Q    Q    E  S S S  S S S    Q    E  H        E
--L-----------------------|----------------------------|----------------------|
--L-----------------------|----------------------------|----------3--------L--|
--------------------7\----|--2-------------------------|--2-------2--------L--|
--------------------7\----|--2-------------------------|--2-------0--------L--|
-----5--5--5--5-----5\----|--0--------------0-4p-0-----|--0-------------------|
--L--3--3--3--3-----------|---------------3--------3-0-|----------------------|


  Q    Q    S S S S S  S S  S    Q    E  H        E
------------------------------|----------------------|
------------------------------|----------3--------L--|
--2---------------------------|--2-------2--------L--|
--2---------------------------|--2-------0--------L--|
--0---------------0-4p-0------|--0-------------------|
--------------0-3--------3p-0-|----------------------|


  Q    Q    E  S S S  S S  S    Q    E  H        E
-----------------------------|----------------------|
-----------------------------|----------3--------L--|
--2--------------------------|--2-------2--------L--|
--2--------------------------|--2-------0--------L--|
--0--------------0-4p-0------|--0-------------------|
---------------3--------3p-0-|----------------------|


  E  S E  S Q    S S Q        E  S E  S Q      E   Q
---------------------------|------------------12--12-----|
-----------------8---8\----|------------------12--15~----|
-----------------7---7\----|-----------------------------|
---------------------------|-----------------------------|
---------------------------|-----------------------------|
--0--0-2--0-3--------------|--0--0-2--0-3/---------------|


                                                       PM PM PM PM PM PM PM
  E  S E  S Q    S S Q        E  E  Q    E  E  Q       E  E  E  E  E  E  E  E
---------------------------|------------------------|--------------------------|
-----------------8---8\----|------------------------|--------------------------|
-----------------7---7\----|------------------------|-----------------------7--|
---------------------------|------------------------|-----------------------7--|
---------------------------|--2--2-------5--5-------|--0--0--0--0--0--0--0--5--|
--0--0-2--0-3--------------|--0--0-------3--3-------|--------------------------|


  Q    Q    Q     E  E     Q    Q    Q     E  E     Q    E  Q.     E  E
------------------------|------------------------|------------------------|
------------------------|------------------------|------------------------|
--L------------------7--|--L---------------------|------------------------|
--L------------------7--|--L---------------------|------------------------|
--L----5----L\-------5--|--L----5----L\----------|------------------------|
-------3----L\----------|-------3----L\-------2--|--L-------3---------3s--|


  PM PM PM PM PM PM PM
  E  E  E  E  E  E  E  E     Q    Q    Q     E  E     Q    Q    Q     E  E
--------------------------|------------------------|------------------------|
--------------------------|------------------------|------------------------|
-----------------------7--|--L------------------7--|--L---------------------|
-----------------------7--|--L------------------7--|--L---------------------|
-----------------------5--|--L----5----L\-------5--|--L----5----L\----------|
--5--5--5--5--5--5--5-----|-------3----L\----------|-------3----L\-------2--|


                           PM PM PM PM PM PM PM
  Q    E  Q.     E  E      E  E  E  E  E  E  E  E     Q    Q    Q     E  E
------------------------|--------------------------|------------------------|
------------------------|--------------------------|------------------------|
------------------------|-----------------------7--|--L------------------7--|
------------------------|-----------------------7--|--L------------------7--|
------------------------|-----------------------5--|--L----5----L\-------5--|
--L-------3---------3s--|--5--5--5--5--5--5--5-----|-------3----L\----------|


  Q    Q    Q     E  E     Q    E  Q.     Q       W
------------------------|----------------------|-------------------|
------------------------|----------------------|-------------------|
--L---------------------|----------------------|-------------------|
--L---------------------|----------------------|--3----------------|
--L----5----L\----------|----------------------|--3----------------|
-------3----L\-------2--|--L-------3-----------|--1----------------|


                      PM PM PM PM PM PM PM PM    PM PM PM PM PM PM PM PM
  W                   E  E  E  E  E  E  E  E     E  E  E  E  E  E  E  E
-------------------|--------------------------|--------------------------|
-------------------|--------------------------|--------------------------|
-------------------|--------------------------|--------------------------|
--L----------------|--------------------------|--------------------2-----|
--L----------------|--0--0--0--0--0--0--0--0--|--0--0--0--0--0--0--0--0--|
--L----------------|--------------------------|--------------------------|


  PM PM PM PM PM PM PM PM    PM PM PM PM PM PM PM PM
  E  E  E  E  E  E  E  E     E  E  E  E  E  E  E  E
--------------------------|--------------------------|
--------------------------|--------------------------|
--------------------------|--------------------------|
--------------------2-----|--------2-----------2-----|
--0--0--0--0--0--0--0--0--|--0--0--0--0--0--0--0--0--|
--------------------------|--------------------------|


  PM PM PM PM PM PM PM PM    PM PM    PM PM PM    PM
  E  E  E  E  E  E  E  E     E  E  E  E  E  E  E  E
--------------------------|--------------------------|
--------------------------|--------------------------|
--------------------------|--------------------------|
--2-----2-----------2-----|--------2-----------2-----|
--0--0--0--0--0--0--0--0--|--0--0--0--0--0--0--0--0--|
--------------------------|--------------------------|


                             PM                              PM    PM PM
  E  E  E  E  E  E  E  E     E  H        Q.        Q    Q    E  E  E  E
--------------------------|---------------------|------------------------|
--------------------------|--------------3------|------------------------|
--------------------------|-----0--------2------|--2----2----------------|
--2--2--2--2--2--2--2--2--|-----0--------0------|--2----2-------2--------|
--0--0--0--0--0--0--0--0--|--0------------------|--0----0----0--0--0--0--|
--------------------------|-----3---------------|------------------------|


       PM    PM    PM PM              PM    PM PM         PM    PM    PM PM
  Q    E  E  E  E  E  E     Q    Q    E  E  E  E     Q    E  E  E  E  E  E
-------------------------|------------------------|-------------------------|
-------------------------|------------------------|-------------------------|
--2----------------------|--2----2----------------|--2----------------------|
--2-------2--2--2--------|--2----2-------2--------|--2-------2--2--2--------|
--0----0--0--0--0--0--0--|--0----0----0--0--0--0--|--0----0--0--0--0--0--0--|
-------------------------|------------------------|-------------------------|


            PM    PM PM         PM    PM    PM PM
  Q    Q    E  E  E  E     Q    E  E  E  E  E  E     Q.     H        E
------------------------|-------------------------|---------------------|
------------------------|-------------------------|---------------------|
--2----2----------------|--2----------------------|---------------------|
--2----2-------2--------|--2-------2--2--2--------|------------------7--|
--0----0----0--0--0--0--|--0----0--0--0--0--0--3--|--L------5--------5--|
------------------------|----------------------1--|--L------3-----------|


                                  PM    PM PM         PM    PM    PM PM
  Q.     H        E     Q    Q    E  E  E  E     Q    E  E  E  E  E  E
---------------------|------------------------|-------------------------|
---------------------|------------------------|-------------------------|
---------------------|--2----2----------------|--2----------------------|
--L------5-----------|--2----2-------2--------|--2-------2--2--2--------|
--L------3--------0--|--0----0----0--0--0--0--|--0----0--0--0--0--0--0--|
---------------------|------------------------|-------------------------|


            PM    PM PM         PM    PM    PM PM              PM    PM PM
  Q    Q    E  E  E  E     Q    E  E  E  E  E  E     Q    Q    E  E  E  E
------------------------|-------------------------|------------------------|
------------------------|-------------------------|------------------------|
--2----2----------------|--2----------------------|--2----2----------------|
--2----2-------2--------|--2-------2--2--2--------|--2----2-------2--------|
--0----0----0--0--0--0--|--0----0--0--0--0--0--0--|--0----0----0--0--0--0--|
------------------------|-------------------------|------------------------|


       PM    PM    PM PM
  Q    E  E  E  E  E  E     Q.     H        E     Q.     H        E
-------------------------|---------------------|---------------------|
-------------------------|---------------------|---------------------|
--2----------------------|---------------------|---------------------|
--2-------2--2--2--------|------------------7--|--L------5-----------|
--0----0--0--0--0--0--3--|--L------5--------5--|--L------3--------0--|
----------------------1--|--L------3-----------|---------------------|


            PM    PM PM         PM    PM    PM PM              PM    PM PM
  Q    Q    E  E  E  E     Q    E  E  E  E  E  E     Q    Q    E  E  E  E
------------------------|-------------------------|------------------------|
------------------------|-------------------------|------------------------|
--2----2----------------|--2----------------------|--2----2----------------|
--2----2-------2--------|--2-------2--2--2--------|--2----2-------2--------|
--0----0----0--0--0--0--|--0----0--0--0--0--0--0--|--0----0----0--0--0--0--|
------------------------|-------------------------|------------------------|


       PM    PM    PM PM              PM    PM PM         PM    PM    PM PM
  Q    E  E  E  E  E  E     Q    Q    E  E  E  E     Q    E  E  E  E  E  E
-------------------------|------------------------|-------------------------|
-------------------------|------------------------|-------------------------|
--2----------------------|--2----2----------------|--2----------------------|
--2-------2--2--2--------|--2----2-------2--------|--2-------2--2--2--------|
--0----0--0--0--0--0--0--|--0----0----0--0--0--0--|--0----0--0--0--0--0--0--|
-------------------------|------------------------|-------------------------|


                                              PM PM PM PM PM PM PM
  Q    Q    H           Q    Q    H           E  E  E  E  E  E  E  E
---------------------|---------------------|--------------------------|
---------------------|---------------------|--------------------------|
---------------------|---------------------|-----------------------7--|
---------------------|---------------------|-----------------------7--|
--3----3-------------|--5----5-------------|--0--0--0--0--0--0--0--5--|
--1----1-------------|--3----3-------------|--------------------------|


  Q    Q    Q     E  E     Q    Q    Q     E  E     Q    E  Q.     E  E
------------------------|------------------------|------------------------|
------------------------|------------------------|------------------------|
--L------------------7--|--L---------------------|------------------------|
--L------------------7--|--L---------------------|------------------------|
--L----5----L\-------5--|--L----5----L\----------|------------------------|
-------3----L\----------|-------3----L\-------2--|--L-------3---------3s--|


  PM PM PM PM PM PM PM
  E  E  E  E  E  E  E  E     Q    Q    Q     E  E     Q    Q    Q     E  E
--------------------------|------------------------|------------------------|
--------------------------|------------------------|------------------------|
-----------------------7--|--L------------------7--|--L---------------------|
-----------------------7--|--L------------------7--|--L---------------------|
-----------------------5--|--L----5----L\-------5--|--L----5----L\----------|
--5--5--5--5--5--5--5-----|-------3----L\----------|-------3----L\-------2--|


                           PM PM PM PM PM PM PM
  Q    E  Q.     E  E      E  E  E  E  E  E  E  E     Q    Q    Q     E  E
------------------------|--------------------------|------------------------|
------------------------|--------------------------|------------------------|
------------------------|-----------------------7--|--L------------------7--|
------------------------|-----------------------7--|--L------------------7--|
------------------------|-----------------------5--|--L----5----L\-------5--|
--L-------3---------3s--|--5--5--5--5--5--5--5-----|-------3----L\----------|


                                                    PM PM PM PM PM PM PM
  Q    Q    Q     E  E     Q    E  Q.     E  E      E  E  E  E  E  E  E  E
------------------------|------------------------|--------------------------|
------------------------|------------------------|--------------------------|
--L---------------------|------------------------|-----------------------7--|
--L---------------------|------------------------|-----------------------7--|
--L----5----L\----------|------------------------|-----------------------5--|
-------3----L\-------2--|--L-------3---------3s--|--5--5--5--5--5--5--5-----|


  Q    Q    Q     E  E     Q    Q    Q     E  E     Q    E  Q.     E  E
------------------------|------------------------|------------------------|
------------------------|------------------------|------------------------|
--L------------------7--|--L---------------------|------------------------|
--L------------------7--|--L---------------------|------------------------|
--L----5----L\-------5--|--L----5----L\----------|------------------------|
-------3----L\----------|-------3----L\-------2--|--L-------3---------3s--|


  PM PM PM PM PM PM PM
  E  E  E  E  E  E  E  E     Q    Q    Q     E  E     Q    Q    Q     E  E
--------------------------|------------------------|------------------------|
--------------------------|------------------------|------------------------|
-----------------------7--|--L----7----L\-------7--|--L----7----L\----------|
-----------------------7--|--L----5----L\-------7--|--L----5----L\----------|
-----------------------5--|--L------------------5--|--L---------------------|
--5--5--5--5--5--5--5-----|------------------------|---------------------2--|


                           PM PM PM PM PM PM PM
  Q    E  Q.     E  E      E  E  E  E  E  E  E  E     Q    Q    Q     E  E
------------------------|--------------------------|------------------------|
------------------------|--------------------------|------------------------|
------------------------|-----------------------7--|--L----7----L\-------7--|
------------------------|-----------------------7--|--L----5----L\-------7--|
------------------------|-----------------------5--|--L------------------5--|
--L-------3---------3s--|--5--5--5--5--5--5--5-----|------------------------|


                                                    PM PM PM PM PM PM PM
  Q    Q    Q     E  E     Q    E  Q.     E  E      E  E  E  E  E  E  E  E
------------------------|------------------------|--------------------------|
------------------------|------------------------|--------------------------|
--L----7----L\----------|------------------------|-----------------------7--|
--L----5----L\----------|------------------------|-----------------------7--|
--L---------------------|------------------------|-----------------------5--|
---------------------2--|--L-------3---------3s--|--5--5--5--5--5--5--5-----|


  Q    Q    Q     E  E     Q    Q    Q     E  E     Q    E  Q.     E  E
------------------------|------------------------|------------------------|
------------------------|------------------------|------------------------|
--L----7----L\-------7--|--L----7----L\----------|------------------------|
--L----5----L\-------7--|--L----5----L\----------|------------------------|
--L------------------5--|--L---------------------|------------------------|
------------------------|---------------------2--|--L-------3---------3s--|


  PM PM PM PM PM PM PM
  E  E  E  E  E  E  E  E     Q    Q    Q     E  E     Q    Q    Q     E  E
--------------------------|------------------------|------------------------|
--------------------------|------------------------|------------------------|
-----------------------7--|--L----7----L\-------7--|--L----7----L\----------|
-----------------------7--|--L----5----L\-------7--|--L----5----L\----------|
-----------------------5--|--L------------------5--|--L---------------------|
--5--5--5--5--5--5--5-----|------------------------|---------------------2--|


  Q.     Q    Q    E
----------------------||
----------------------||
----------------------||
----------------------||
----------------------||
--2------3----5-------||


=============================================================================
=============================================================================

Guitar 2



E||-------|-------|-------|-------|-------|-------|-------|-------|-------|
B||-------|-------|-------|-------|-------|-------|-------|-------|-------|
G||-------|-------|-------|-------|-------|-------|-------|-------|-------|
D||-------|-------|-------|-------|-------|-------|-------|-------|-------|
A||-------|-------|-------|-------|-------|-------|-------|-------|-------|
E||-------|-------|-------|-------|-------|-------|-------|-------|-------|



               |---3---|               |---3---|
   S  S  S  S  E   E   E   S  S  S  S  E   E   E
--10p-8p-7p-0-------------10p-8p-7p-0-------------|
--------------10p--8p--0--------------10p--8p--0--|
--------------------------------------------------|
--------------------------------------------------|
--------------------------------------------------|
--------------------------------------------------|


  |---3---|  |---3---|  |---3---|  |---3---|
  E   E   E  E   E   E  E   E   E  E   E   E
----------------------------------------------|
----------------------------------------------|
--9p--7p--0--7p--5p--0------------------------|
------------------------7p--5p--0--7p--5p--0--|
----------------------------------------------|
----------------------------------------------|


  |--3--|  |--3--|
  E  E  E  E  E  E  Q     E  E      E  E   E  E   E  Q.
--------------------------0------|--5------8------5----------|
--------------------3b-----------|--5------8------5--8b------|
--------------0--2-----------7b--|-----7b-----7b-------------|
--5--3--0--2---------------------|---------------------------|
---------------------------------|---------------------------|
---------------------------------|---------------------------|


  E  E  E  E     E  E  E  E     E  E   E    E   E  E   E  E
--5--------------------------|--------------------------------|
-----8--5--------------------|------------------5------5------|
-----------7pbr--5-----7-----|--5--7b--7pb--7b-----7b-----7b--|
--------------------7-----7--|--------------------------------|
-----------------------------|--------------------------------|
-----------------------------|--------------------------------|


  |--3--|  |--3--|  |--3--|  |--3--|     |--3--|  |--3--|  |--3--|  |---3--|
  E  E  E  E  E  E  E  E  E  E  E  E     E  E  E  E  E  E  E  E  E  E  E   E
--5-----------5-----------5-----------|--5-----------5------------------------|
-----8--5--------8--5--------8--5-----|-----8--5--------8--5---------------5--|
-----------7-----------7-----------7--|-----------7-----------7--5--------/6--|
--------------------------------------|-----------------------------7--6------|
--------------------------------------|---------------------------------------|
--------------------------------------|---------------------------------------|


                  |--3--|
  Q    Q.      E  E  E  E     E  E  E  Q.        E  E
---------------------------|---------------------------|
--L----5~------L--L-----5--|--8--5-----5brb---------5--|
--L----6~------L--L--7-----|--------7------------7-----|
---------------------------|---------------------------|
---------------------------|---------------------------|
---------------------------|---------------------------|


                                         PM PM PM PM
  E  E  E  E  E  E  E  E     S S S. S S. S. S. S. S. E   E
--------------------------|---------------------------------|
--------------------------|---------------------------------|
--------7--5-----7-----5--|---------------------------------|
--0--7--------7-----7-----|--7-5----------------------------|
--------------------------|------7--6-7--6--5--3--5--3b-----|
--------------------------|------------------------------5--|


  Q    E  S E   E  S S S  E     S S S S  E  S S S S  S S S S S   S
-----------------------------|-------------------------------------|
-----------------------------|-------------------------------------|
-----------------------------|--------------5-5-5-5s-7-9-9-9-9s-12-|
-----------------------------|--5-5-5-6s-7-------------------------|
----------3-5s--7--5-5-5s-7--|-------------------------------------|
--L----5---------------------|-------------------------------------|


   E   E   E   E   E   E   E   E      H.            E   E
----------------------------------|--------------------15b--|
------12--13--12--13--15--13--15--|--15b--------------------|
--14------------------------------|-------------------------|
----------------------------------|-------------------------|
----------------------------------|-------------------------|
----------------------------------|-------------------------|


   H.              E     E        Q       Q        Q     Q
---Lpb-------------Lpb--15pb--|--15pb----15pb----/20----20pb----|
------------------------------|---------------------------------|
------------------------------|---------------------------------|
------------------------------|---------------------------------|
------------------------------|---------------------------------|
------------------------------|---------------------------------|


   Q       Q.       E     E     E        E     E     E     Q       Q     E
--20pb----22b------22pb--22pb--22pb--|--22pb--22pb--22pb--22pb-----L\----5--|
-------------------------------------|-----------------------------------5--|
-------------------------------------|--------------------------------------|
-------------------------------------|--------------------------------------|
-------------------------------------|--------------------------------------|
-------------------------------------|--------------------------------------|


  S  S  S  S S S S  S  S  S S S S  S  S  S
---------------5--------------5------------|
--8b-8p-5p-0-5-5-8b-8p-5p-0-5-5-8b-8p-5p-0-|
-------------------------------------------|
-------------------------------------------|
-------------------------------------------|
-------------------------------------------|


  S S S  S  S  S S S S  S  S  S S  S  E       Q     H         Q
----5--------------5---------------------|--/10----10b-------------|
--5-5-8b-8p-5p-0-5-5-8b-8p-5p-0----------|-------------------------|
--------------------------------7p-5p-0--|-------------------------|
-----------------------------------------|-------------------------|
-----------------------------------------|-------------------------|
-----------------------------------------|-------------------------|





Duration Legend
---------------
W - whole
H - half
Q - quarter
E - 8th
S - 16th
T - 32nd
X - 64th
. - note dotted
|-n-|  - n-tuplets


Tablature Legend
----------------
L - tied note
x - dead note
g - grace note
(n) - ghost note
> - accentuded note
NH - natural harmonic
AH - artificial harmonic
TH - tapped harmonic
SH - semi harmonic
PH - pitch harmonic
h - hammer on
p - pull off
b - bend
br - bendRelease
pb - preBend
pbr - preBendRelease
brb - bendReleaseBend
\n/ - tremolo bar dip
\n - tremolo bar dive
-/n - tremolo bar Release up
/n\ - tremolo bar inverted dip
/n - tremolo bar return
-\n - tremolo bar Release down
S - shift slide
s - legato slide
/ -  slide into from below or out of upwards
\ -  slide into from above or out of downwards
~ - vibrato
W - wide vibrato
tr - trill
TP - tremolo picking
T - tapping
S - slap
P - pop
< - fade in
^ - brush up
v - brush down
comments
We did not receive enough feedback on this tab! Please rate:
1 2 3 4 5
I want to post or [tab]
guest
You may want to rate the tab now too:
select rating
Please do not post tabs as comments. Select "correction" instead!