Oops, an error
Loading. Please wait.

I Dont Need Love Bass Tab

ver1
ver1

Whole song

Interactive

More versions @911Tabs.com
159 views 1 this week
no commentswrite comment
1 2 3 4 5
please rate
Autoscroll
+/-
esc
set tempo
stop
Contributor
Difficulty
intermediate
Hey! There's an official Ultimate Guitar app which is ideal
for learning songs when you're away from computer. Get the app
WARNING: You are trying to view
                                    content from Ultimate-Guitar.com
                                    in an unauthorized application,
                                    which is prohibited.

                                    Please use an official Ultimate
                                    Guitar Tabs application for iPhone,
                                    iPad or Android to access legitimate
                                    chords, guitar, bass, and drum tabs
                                    from Ultimate-Guitar.com database.

                                    Type "ultimate guitar tabs" in Apple
                                    App Store's or Android Market's
                                    search to find the application.
-----------------------------------------------------------------------------
		                  
                I Don't Need Love - Sammy Hagar (BASS)
            
-----------------------------------------------------------------------------
Tabbed by: Scotto10

Tuning: standard tuning

=============================================================================

      
Bass



     Q    H.              W                   W                 
G||--------------------|-------------------|-------------------|
D||--------------------|-------------------|-------------------|
A||--------------------|-------------------|-------------------|
E||--0-----------------|-------------------|-------------------|


  W                   Q    H.              W                 
-------------------|--------------------|-------------------|
-------------------|--------------------|-------------------|
-------------------|--------------------|-------------------|
-------------------|--0-----------------|-------------------|


  E  E  E  E  E  E  E  E     E  E  E  E  E  E  E  E   
--------------------------|--------------------------|
--------------------------|--------------------------|
--7--7--7--7--7--7--7--7--|--7--7--7--7--7--7--7--7--|
--------------------------|--------------------------|


  E  E  E  E  E  E  E  E     E  E  E  E  E  E  E  E   
--------------------------|--------------------------|
--------------------------|--------------------------|
--------------------------|--------------------5--5--|
--0--0--0--0--0--0--0--0--|--0--0--0--0--0--0--------|


  E  E  E  E  E  E  E  E     E  E  E  E  E  E  E  E   
--------------------------|--------------------------|
--------------------------|--------------------------|
--------------------------|--------------------7--5--|
--0--0--0--0--0--0--0--0--|--0--0--0--0--0--0--------|


  E  E  E  E  E  E  E  E     E  E  E  E  E  E  E  E   
--------------------------|--------------------------|
--------------------------|--------------------------|
--------------------------|--------------------5--5--|
--0--0--0--0--0--0--0--0--|--0--0--0--0--0--0--------|


  E  E  E  E  E  E  E  E     E  E  E  E  E  E  E  E   
--------------------------|--------------------------|
--------------------------|--------------------------|
--------------------------|--------------------5--5--|
--0--0--0--0--0--0--0--0--|--0--0--0--0--0--0--------|


  E  E  E  E  E  E  E  E     E  E  E  E  E  E  E  E   
--------------------------|--------------------------|
--------------------------|--------------------------|
--------------------------|--------------------------|
--0--0--0--0--0--0--0--0--|--0--0--0--0--0--0--0--0--|


  E  E  E  E  E  E  E  E     E   E  E   E  E   E  E   E   
--------------------------|------------------------------|
--------------------------|-----------------------5p--0--|
--------------------------|----------------5p--0---------|
--0--0--0--0--0--0--0--0--|--5p--0--7p--0----------------|


  E  E  E  E  E  E  E  E     E  E  E  E  E  E  E  E   
--------------------------|--------------------------|
--------------------------|--------------------------|
--------------------------|--------------------------|
--0--0--0--0--0--0--0--0--|--0--0--0--0--0--0--0--0--|


  E  E  E  E  E  E  E  E     E   E  E   E  E   E  E   E   
--------------------------|------------------------------|
--------------------------|-----------------------5p--0--|
--------------------------|----------------5p--0---------|
--0--0--0--0--0--0--0--0--|--5p--0--7p--0----------------|


  E  E  E  E  E  E  E  E     E  E  E  E  E  E  E  E   
--------------------------|--------------------------|
--------------------------|--------------------------|
--------------------------|--------------------------|
--0--0--0--0--0--0--0--0--|--0--0--0--0--0--0--0--0--|


  E  E  E  E  E  E  E  E     E   E  E   E  E   E  E   E   
--------------------------|------------------------------|
--------------------------|-----------------------5p--0--|
--------------------------|----------------5p--0---------|
--0--0--0--0--0--0--0--0--|--5p--0--7p--0----------------|


  E  E  E  E  E  E  E  E     E  E  E  E  E  E  E  E   
--------------------------|--------------------------|
--------------------------|--------------------------|
--------------------------|--------------------------|
--0--0--0--0--0--0--0--0--|--0--0--0--0--0--0--0--0--|


  E  E  E  E  E  E  E  E     E   E  E   E  E   E  E   E   
--------------------------|------------------------------|
--------------------------|-----------------------5p--0--|
--------------------------|----------------5p--0---------|
--0--0--0--0--0--0--0--0--|--5p--0--7p--0----------------|


  Q.     Q    E  Q       Q.     Q    E  Q       Q    Q    Q    Q     
----------------------|----------------------|----------------------|
----------------------|----------------------|----------------------|
--3--------------3----|--5--------------5----|--7----7----7----7----|
---------3----3-------|---------5----5-------|----------------------|


  Q    Q    Q    Q       Q.     Q    E  Q       Q.     Q    E  Q     
----------------------|----------------------|----------------------|
----------------------|----------------------|----------------------|
--7----7----5----0----|--5--------------5----|----------------------|
----------------------|---------5----5-------|--5------0----0--5----|


  Q    Q    Q    Q       Q    Q    E  E  Q       Q.     Q    E  Q     
----------------------|-----------------------|----------------------|
----------------------|-----------------------|----------------------|
--7----7----7----7----|--7----7----5--5--0----|--3--------------3----|
----------------------|-----------------------|---------3----3-------|


  Q.     Q    E  Q       E  E  E  E  E  E  E  E     E  E  E  E  E  E  E  E   
----------------------|--------------------------|--------------------------|
----------------------|--------------------------|--------------------------|
--5--------------5----|--7--7--7--7--7--7--7--7--|--7--7--7--7--5--5--0--0--|
---------5----5-------|--------------------------|--------------------------|


  Q.     Q    E  Q       Q.     Q    E  Q       E  E  E  E  E  E  E  E   
----------------------|----------------------|--------------------------|
----------------------|----------------------|--------------------------|
--5--------------5----|----------------------|--3--3--3--3--3--3--3--3--|
---------5----5-------|--5------0----0--5----|--------------------------|


  E  E  E  E  E  E  E  E     E  E  E  E  E  E  E  E   
--------------------------|--------------------------|
--------------------------|--------------------------|
--5--5--5--5--5--5--5--5--|--------------------------|
--------------------------|--0--0--0--0--0--0--0--0--|


  E  E  E  E  E  E  E  E     E  E  E  E  E  E  E  E   
--------------------------|--------------------------|
--------------------------|--------------------------|
--------------------------|--7--7--7--7--7--7--7--7--|
--0--0--0--0--0--0--0--0--|--------------------------|


  E  E  E  E  E  E  E  E     E  E  E  E  E  E  E  E   
--------------------------|--------------------------|
--------------------------|--------------------------|
--7--7--7--7--7--7--7--7--|--------------------------|
--------------------------|--0--0--0--0--0--0--0--0--|


  E  E  E  E  E  E  E  E     Q    Q    H           Q    Q    H         
--------------------------|---------------------|---------------------|
--------------------------|---------------------|---------------------|
--------------------------|--3----3-------------|--5----5-------------|
--0--0--0--0--0--0--0--0--|---------------------|---------------------|


  E  E  E  E  E  E  E  E     E  E  E  E  E  E  E  E   
--------------------------|--------------------------|
--------------------------|--------------------------|
--------------------------|--------------------------|
--0--0--0--0--0--0--0--0--|--0--0--0--0--0--0--0--0--|


  E  E  E  E  E  E  E  E     E   E  E   E  E   E  E   E   
--------------------------|------------------------------|
--------------------------|-----------------------5p--0--|
--------------------------|----------------5p--0---------|
--0--0--0--0--0--0--0--0--|--5p--0--7p--0----------------|


  E  E  E  E  E  E  E  E     E  E  E  E  E  E  E  E   
--------------------------|--------------------------|
--------------------------|--------------------------|
--------------------------|--------------------------|
--0--0--0--0--0--0--0--0--|--0--0--0--0--0--0--0--0--|


  E  E  E  E  E  E  E  E     E   E  E   E  E   E  E   E   
--------------------------|------------------------------|
--------------------------|-----------------------5p--0--|
--------------------------|----------------5p--0---------|
--0--0--0--0--0--0--0--0--|--5p--0--7p--0----------------|


  E  E  E  E  E  E  E  E     E  E  E  E  E  E  E  E   
--------------------------|--------------------------|
--------------------------|--------------------------|
--------------------------|--------------------------|
--0--0--0--0--0--0--0--0--|--0--0--0--0--0--0--0--0--|


  E  E  E  E  E  E  E  E     E   E  E   E  E   E  E   E   
--------------------------|------------------------------|
--------------------------|-----------------------5p--0--|
--------------------------|----------------5p--0---------|
--0--0--0--0--0--0--0--0--|--5p--0--7p--0----------------|


  E  E  E  E  E  E  E  E     E  E  E  E  E  E  E  E   
--------------------------|--------------------------|
--------------------------|--------------------------|
--------------------------|--------------------------|
--0--0--0--0--0--0--0--0--|--0--0--0--0--0--0--0--0--|


  E  E  E  E  E  E  E  E     E   E  E   E  E   E  E   E   
--------------------------|------------------------------|
--------------------------|-----------------------5p--0--|
--------------------------|----------------5p--0---------|
--0--0--0--0--0--0--0--0--|--5p--0--7p--0----------------|


  Q.     Q    E  Q       Q.     Q    E  Q       E  E  E  E  E  E  E  E   
----------------------|----------------------|--------------------------|
----------------------|----------------------|--------------------------|
--3--------------3----|--5--------------5----|--7--7--7--7--7--7--7--7--|
---------3----3-------|---------5----5-------|--------------------------|


  E  E  E  E  E  E  E  E     Q.     Q    E  Q       Q.     Q    E  Q     
--------------------------|----------------------|----------------------|
--------------------------|----------------------|----------------------|
--7--7--7--7--5--5--0--0--|--5--------------5----|----------------------|
--------------------------|---------5----5-------|--5------0----0--5----|


  E  E  E  E  E  E  E  E     E  E  E  E  E  E  E  E     Q.     Q    E  Q     
--------------------------|--------------------------|----------------------|
--------------------------|--------------------------|----------------------|
--7--7--7--7--7--7--7--7--|--7--7--7--7--5--5--0--0--|--3--------------3----|
--------------------------|--------------------------|---------3----3-------|


  Q.     Q    E  Q       E  E  E  E  E  E  E  E     E  E  E  E  E  E  E  E   
----------------------|--------------------------|--------------------------|
----------------------|--------------------------|--------------------------|
--5--------------5----|--7--7--7--7--7--7--7--7--|--7--7--7--7--5--5--0--0--|
---------5----5-------|--------------------------|--------------------------|


  Q.     Q    E  Q       Q.     Q    E  Q       E  E  E  E  E  E  E  E   
----------------------|----------------------|--------------------------|
----------------------|----------------------|--------------------------|
--5--------------5----|----------------------|--3--3--3--3--3--3--3--3--|
---------5----5-------|--5------0----0--5----|--------------------------|


  E  E  E  E  E  E  E  E     E  E  E  E  Q     Q             
--------------------------|-------------------------|-------|
--------------------------|-------------------------|-------|
--5--5--5--5--5--5--5--5--|--7--7--7--7--7\---------|-------|
--------------------------|-------------------------|-------|


  E  E  E  E  Q     Q               E  E  E  E  Q     Q             
-------------------------|-------|-------------------------|-------|
-------------------------|-------|-------------------------|-------|
--7--7--7--7--7\---------|-------|--7--7--7--7--7\---------|-------|
-------------------------|-------|-------------------------|-------|


  E  E  E  E  Q     Q               Q.     Q    Q.                              
-------------------------|-------|---------------------|-------|-------|-------|
-------------------------|-------|---------------------|-------|-------|-------|
--7--7--7--7--7\---------|-------|--7------7-----------|-------|-------|-------|
-------------------------|-------|---------------------|-------|-------|-------|


  Q    H.              W                   W                 
--------------------|-------------------|-------------------|
--------------------|-------------------|-------------------|
--------------------|-------------------|-------------------|
--0-----------------|-------------------|-------------------|


  W                   Q    H.                      E  E  E  E  E  E  E  E   
-------------------|--------------------|-------|--------------------------|
-------------------|--------------------|-------|--------------------------|
-------------------|--------------------|-------|--7--7--7--7--7--7--7--7--|
-------------------|--0-----------------|-------|--------------------------|


  |--3--|  |--3--|  |--3--|  |--3--|                              
  E  E  E  E  E  E  E  E  E  E  E  E     E  E  E  E  E  E  E  E   
--------------------------------------|--------------------------|
--------------------------------------|--------------------------|
--7--7--7--7--7--7--7--7--7--7--7--7--|--------------------------|
--------------------------------------|--0--0--0--0--0--0--0--0--|


  E  E  E  E  E  E  E  E     E  E  E  E  E  E  E  E   
--------------------------|--------------------------|
--------------------------|--------------------------|
--------------------------|--7--7--7--7--7--7--7--7--|
--0--0--0--0--0--0--0--0--|--------------------------|


  E  E  E  E  E  E  E  E     E  E  E  E  E  E  E  E   
--------------------------|--------------------------|
--------------------------|--------------------------|
--7--7--7--7--7--7--7--7--|--------------------------|
--------------------------|--0--0--0--0--0--0--0--0--|


  E  E  E  E  E  E  E  E     E  E  E  E  E  E  E  E   
--------------------------|--------------------------|
--------------------------|--------------------------|
--------------------------|--7--7--7--7--7--7--7--7--|
--0--0--0--0--0--0--0--0--|--------------------------|


  E  E  E  E  E  E  E  E     Q.     Q    E  Q       Q.     Q    E  Q     
--------------------------|----------------------|----------------------|
--------------------------|----------------------|----------------------|
--7--7--7--7--7--7--7--7--|--3--------------3----|--5--------------5----|
--------------------------|---------3----3-------|---------5----5-------|


  Q    Q    Q    Q       Q    Q    Q    Q       Q.     Q    E  Q     
----------------------|----------------------|----------------------|
----------------------|----------------------|----------------------|
--7----7----7----7----|--7----7----5----0----|--5--------------5----|
----------------------|----------------------|---------5----5-------|


  Q.     Q    E  Q       Q    Q    Q    Q       Q    Q    E  E  Q     
----------------------|----------------------|-----------------------|
----------------------|----------------------|-----------------------|
----------------------|--7----7----7----7----|--7----7----5--5--0----|
--5------0----0--5----|----------------------|-----------------------|


  Q.     Q    E  Q       Q.     Q    E  Q       E  E  E  E  E  E  E  E   
----------------------|----------------------|--------------------------|
----------------------|----------------------|--------------------------|
--3--------------3----|--5--------------5----|--7--7--7--7--7--7--7--7--|
---------3----3-------|---------5----5-------|--------------------------|


  E  E  E  E  E  E  E  E     Q.     Q    E  Q       Q.     Q    E  Q     
--------------------------|----------------------|----------------------|
--------------------------|----------------------|----------------------|
--7--7--7--7--5--5--0--0--|--5--------------5----|----------------------|
--------------------------|---------5----5-------|--5------0----0--5----|


  Q    Q    Q    Q       Q    Q    E  E  Q       Q.     Q    E  Q     
----------------------|-----------------------|----------------------|
----------------------|-----------------------|----------------------|
--7----7----7----7----|--7----7----5--5--0----|--3--------------3----|
----------------------|-----------------------|---------3----3-------|


  Q.     Q    E  Q       Q    Q    Q    Q       Q    Q    Q    Q     
----------------------|----------------------|----------------------|
----------------------|----------------------|----------------------|
--5--------------5----|--7----7----7----7----|--7----7----5----0----|
---------5----5-------|----------------------|----------------------|


  Q.     Q    E  Q       Q.     Q    E  Q       Q    Q    Q    Q     
----------------------|----------------------|----------------------|
----------------------|----------------------|----------------------|
--5--------------5----|----------------------|--7----7----7----7----|
---------5----5-------|--5------0----0--5----|----------------------|


  Q    Q    E  E  Q       Q.     Q    E  Q       Q.     Q    E  Q     
-----------------------|----------------------|----------------------|
-----------------------|----------------------|----------------------|
--7----7----5--5--0----|--3--------------3----|--5--------------5----|
-----------------------|---------3----3-------|---------5----5-------|


  E  E  E  E  E  E  E  E     E  E  E  E  E  E  E  E     Q.     Q    E  Q     
--------------------------|--------------------------|----------------------|
--------------------------|--------------------------|----------------------|
--7--7--7--7--7--7--7--7--|--7--7--7--7--5--5--0--0--|--5--------------5----|
--------------------------|--------------------------|---------5----5-------|


  Q.     Q    E  Q       E  E  E  E  E  E  E  E     E  E  E  E  E  E  E  E   
----------------------|--------------------------|--------------------------|
----------------------|--------------------------|--------------------------|
----------------------|--3--3--3--3--3--3--3--3--|--5--5--5--5--5--5--5--5--|
--5------0----0--5----|--------------------------|--------------------------|


  E  E  E  E  E  E  E  E     E  E  E  E  E  E  Q       E  E  E  E  E  E  E  E   
--------------------------|-------------------------|--------------------------|
--------------------------|-------------------------|--------------------------|
--------------------------|--------------------5----|--7--7--7--7--7--7--7--7--|
--0--0--0--0--0--0--0--0--|--0--0--0--0--0--0-------|--------------------------|


  E  E  E  E  E  E  E  E     E  E  E  E  E  E  E  E     E  E  E  E  E  E  Q     
--------------------------|--------------------------|-------------------------|
--------------------------|--------------------------|-------------------------|
--7--7--7--7--7--7--7--7--|--------------------------|--------------------5----|
--------------------------|--0--0--0--0--0--0--0--0--|--0--0--0--0--0--0-------|


  E  E  E  E  E  E  E  E     E  E  E  E  E  E  E  E   
--------------------------|--------------------------|
--------------------------|--------------------------|
--7--7--7--7--7--7--7--7--|--7--7--7--7--7--7--7--7--|
--------------------------|--------------------------|


  E  E  E  E  E  E  E  E     E  E  E  E  E  E  Q       E  E  E  E  E  E  E  E   
--------------------------|-------------------------|--------------------------|
--------------------------|-------------------------|--------------------------|
--------------------------|--------------------5----|--7--7--7--7--7--7--7--7--|
--0--0--0--0--0--0--0--0--|--0--0--0--0--0--0-------|--------------------------|


  E  E  E  E  E  E  E  E     E  E  E  E  E  E  E  E     E  E  E  E  E  E  Q     
--------------------------|--------------------------|-------------------------|
--------------------------|--------------------------|-------------------------|
--7--7--7--7--7--7--7--7--|--------------------------|--------------------5----|
--------------------------|--0--0--0--0--0--0--0--0--|--0--0--0--0--0--0-------|


  E  E  E  E  E  E  E  E     E  E  E  E  E  E  Q      
--------------------------|-------------------------||
--------------------------|-------------------------||
--7--7--7--7--7--7--7--7--|--7--7--7--7--7----------||
--------------------------|--------------0----------||






Duration Legend
---------------
W - whole
H - half
Q - quarter
E - 8th
S - 16th
T - 32nd
X - 64th
. - note dotted
|-n-|  - n-tuplets


Tablature Legend
----------------
L - tied note
x - dead note
g - grace note
(n) - ghost note
> - accentuded note
NH - natural harmonic
AH - artificial harmonic
TH - tapped harmonic
SH - semi harmonic
PH - pitch harmonic
h - hammer on
p - pull off
b - bend
br - bendRelease
pb - preBend
pbr - preBendRelease
brb - bendReleaseBend
\n/ - tremolo bar dip
\n - tremolo bar dive
-/n - tremolo bar Release up
/n\ - tremolo bar inverted dip
/n - tremolo bar return
-\n - tremolo bar Release down
S - shift slide
s - legato slide
/ -  slide into from below or out of upwards
\ -  slide into from above or out of downwards
~ - vibrato
W - wide vibrato
tr - trill
TP - tremolo picking
T - tapping
S - slap
P - pop
< - fade in
^ - brush up
v - brush down
comments
We did not receive enough feedback on this tab! Please rate:
print report bad tab
1 2 3 4 5
I want to post or [tab]
guest
You may want to rate the tab now too:
select rating
Please do not post tabs as comments. Select "correction" instead!