Oops, an error
Loading. Please wait.

I Dont Need Love Tab

ver2
ver2

Whole song

Interactive

More versions @911Tabs.com
468 views 1 this week
no commentswrite comment
1 2 3 4 5
please rate
Autoscroll
+/-
esc
set tempo
stop
Contributor
Difficulty
intermediate
Hey! There's an official Ultimate Guitar app which is ideal
for learning songs when you're away from computer. Get the app
WARNING: You are trying to view
                                    content from Ultimate-Guitar.com
                                    in an unauthorized application,
                                    which is prohibited.

                                    Please use an official Ultimate
                                    Guitar Tabs application for iPhone,
                                    iPad or Android to access legitimate
                                    chords, guitar, bass, and drum tabs
                                    from Ultimate-Guitar.com database.

                                    Type "ultimate guitar tabs" in Apple
                                    App Store's or Android Market's
                                    search to find the application.
-----------------------------------------------------------------------------
                                  
               I Don't Need Love - Sammy Hagar (GUITAR)
            
-----------------------------------------------------------------------------
Tabbed by: Scotto10

Tuning: standard tuning

=============================================================================

      
Guitar 1


     E   E  E   E  E   E  E   E     E   E  E   E  E   E  E   E   
E||------------------------------|------------------------------|
B||------------------------------|------------------------------|
G||------------------------------|------------------------------|
D||------------------------------|--5p--0-----------------------|
A||----------------5p--0--7p--0--|---------7p--0--5p--0--7p--0--|
E||--5p--0--7p--0----------------|------------------------------|


  E   E  E   E  E   E  E   E     E   E  E   E  E   E  E   E   
------------------------------|------------------------------|
------------------------------|------------------------------|
------------------------------|------------------------------|
------------------------------|--5p--0--7p--0--5p--0---------|
----------------5p--0--7p--0--|-----------------------7p--0--|
--5p--0--7p--0----------------|------------------------------|


  E   E  E   E  E   E  E   E     E   E  E   E  E   E  E   E   
------------------------------|------------------------------|
------------------------------|------------------------------|
------------------------------|------------------------------|
------------------------------|--5p--0-----------------------|
----------------5p--0--7p--0--|---------7p--0--5p--0--7p--0--|
--5p--0--7p--0----------------|------------------------------|


  E   E  E   E  E   E  E   E     E   E  E   E  E   E  E   E   
------------------------------|------------------------------|
------------------------------|------------------------------|
------------------------------|------------------------------|
------------------------------|--5p--0--7p--0--5p--0---------|
----------------5p--0--7p--0--|-----------------------7p--0--|
--5p--0--7p--0----------------|------------------------------|


  E   E  E   E  E   E  E   E     E   E  E   E  E   E  E   E   
------------------------------|------------------------------|
------------------------------|------------------------------|
------------------------------|------------------------------|
------------------------------|--5p--0-----------------------|
----------------5p--0--7p--0--|---------7p--0--5p--0--7p--0--|
--5p--0--7p--0----------------|------------------------------|


  E   E  E   E  E   E  E   E     E   E  E   E  E   E  E   E   
------------------------------|------------------------------|
------------------------------|------------------------------|
------------------------------|------------------------------|
------------------------------|--5p--0--7p--0--5p--0---------|
----------------5p--0--7p--0--|-----------------------7p--0--|
--5p--0--7p--0----------------|------------------------------|


  E   E  E   E  E   E  E   E     E   E  E   E  E   E  E   E   
------------------------------|------------------------------|
------------------------------|------------------------------|
------------------------------|------------------------------|
------------------------------|--5p--0-----------------------|
----------------5p--0--7p--0--|---------7p--0--5p--0--7p--0--|
--5p--0--7p--0----------------|------------------------------|


  E   E  E   E  E   E  E   E     E   E  E   E  E   E  E   E   
------------------------------|------------------------------|
------------------------------|------------------------------|
------------------------------|------------------------------|
------------------------------|--5p--0--7p--0--5p--0---------|
----------------5p--0--7p--0--|-----------------------7p--0--|
--5p--0--7p--0----------------|------------------------------|


  PM PM PM PM           PM    PM PM PM PM           PM  
  E  E  E  E  E   E  E  E     E  E  E  E  E   E  E  E   
---------------------------|---------------------------|
---------------------------|---------------------------|
--------------9\--7--7-----|--------------7s--9--9-----|
--------------9\--7--7-----|--------------7s--9--9-----|
--------------7\--5--5-----|--------------5s--7--7-----|
--0--0--0--0------------0--|--0--0--0--0------------0--|


  PM PM PM PM           PM                                 
  E  E  E  E  E   E  E  E     E   E  E   E  E   E  E   E   
---------------------------|------------------------------|
---------------------------|------------------------------|
--------------9\--7--7-----|------------------------------|
--------------9\--7--7-----|-----------------------5p--0--|
--------------7\--5--5-----|----------------5p--0---------|
--0--0--0--0------------0--|--5p--0--7p--0----------------|


  PM PM PM PM           PM    PM PM PM PM           PM  
  E  E  E  E  E   E  E  E     E  E  E  E  E   E  E  E   
---------------------------|---------------------------|
---------------------------|---------------------------|
--------------9\--7--7-----|--------------7s--9--9-----|
--------------9\--7--7-----|--------------7s--9--9-----|
--------------7\--5--5-----|--------------5s--7--7-----|
--0--0--0--0------------0--|--0--0--0--0------------0--|


  PM PM PM PM           PM                                 
  E  E  E  E  E   E  E  E     E   E  E   E  E   E  E   E   
---------------------------|------------------------------|
---------------------------|------------------------------|
--------------9\--7--7-----|------------------------------|
--------------9\--7--7-----|-----------------------5p--0--|
--------------7\--5--5-----|----------------5p--0---------|
--0--0--0--0------------0--|--5p--0--7p--0----------------|


  PM PM PM PM           PM    PM PM PM PM           PM  
  E  E  E  E  E   E  E  E     E  E  E  E  E   E  E  E   
---------------------------|---------------------------|
---------------------------|---------------------------|
--------------9\--7--7-----|--------------7s--9--9-----|
--------------9\--7--7-----|--------------7s--9--9-----|
--------------7\--5--5-----|--------------5s--7--7-----|
--0--0--0--0------------0--|--0--0--0--0------------0--|


  PM PM PM PM           PM                                 
  E  E  E  E  E   E  E  E     E   E  E   E  E   E  E   E   
---------------------------|------------------------------|
---------------------------|------------------------------|
--------------9\--7--7-----|------------------------------|
--------------9\--7--7-----|-----------------------5p--0--|
--------------7\--5--5-----|----------------5p--0---------|
--0--0--0--0------------0--|--5p--0--7p--0----------------|


  PM PM PM PM           PM    PM PM PM PM           PM  
  E  E  E  E  E   E  E  E     E  E  E  E  E   E  E  E   
---------------------------|---------------------------|
---------------------------|---------------------------|
--------------9\--7--7-----|--------------7s--9--9-----|
--------------9\--7--7-----|--------------7s--9--9-----|
--------------7\--5--5-----|--------------5s--7--7-----|
--0--0--0--0------------0--|--0--0--0--0------------0--|


  PM PM PM PM           PM                                 
  E  E  E  E  E   E  E  E     E   E  E   E  E   E  E   E   
---------------------------|------------------------------|
---------------------------|------------------------------|
--------------9\--7--7-----|------------------------------|
--------------9\--7--7-----|-----------------------5p--0--|
--------------7\--5--5-----|----------------5p--0---------|
--0--0--0--0------------0--|--5p--0--7p--0----------------|


  Q    Q    Q     Q       Q    Q    Q     Q       E   E  E   E  E   E  E   E   
-----------------------|-----------------------|------------------------------|
-----------------------|-----------------------|------------------------------|
--5----5----L\---------|--7----7----L\---------|------------------------------|
--5----5----L\---------|--7----7----L\---------|------------------------------|
--3----3----L\---------|--5----5----L\---------|----------------5p--0--7p--0--|
-----------------------|-----------------------|--5p--0--7p--0----------------|


  E   E  E   E  E   E  E   E     Q    Q    Q     Q       Q    Q    Q     Q     
------------------------------|-----------------------|-----------------------|
------------------------------|-----------------------|-----------------------|
------------------------------|--7----7----L\---------|-----------------------|
--5p--0-----------------------|--7----7----L\---------|--7----7----L\---------|
---------7p--0--5p--0--7p--0--|--5----5----L\---------|--7----7----L\---------|
------------------------------|-----------------------|--5----5----L\---------|


  E   E  E   E  E   E  E   E     E   E  E   E  E   E  E   E   
------------------------------|------------------------------|
------------------------------|------------------------------|
------------------------------|------------------------------|
------------------------------|--5p--0--7p--0--5p--0---------|
----------------5p--0--7p--0--|-----------------------7p--0--|
--5p--0--7p--0----------------|------------------------------|


  Q    Q    Q     Q       Q    Q    Q     Q       E   E  E   E  E   E  E   E   
-----------------------|-----------------------|------------------------------|
-----------------------|-----------------------|------------------------------|
--5----5----L\---------|--7----7----L\---------|------------------------------|
--5----5----L\---------|--7----7----L\---------|------------------------------|
--3----3----L\---------|--5----5----L\---------|----------------5p--0--7p--0--|
-----------------------|-----------------------|--5p--0--7p--0----------------|


  E   E  E   E  E   E  E   E     Q    Q    Q     Q       Q    Q    Q     Q     
------------------------------|-----------------------|-----------------------|
------------------------------|-----------------------|-----------------------|
------------------------------|--7----7----L\---------|-----------------------|
--5p--0-----------------------|--7----7----L\---------|--7----7----L\---------|
---------7p--0--5p--0--7p--0--|--5----5----L\---------|--7----7----L\---------|
------------------------------|-----------------------|--5----5----L\---------|


  E  E  E  E  E  E  E  E     E  E  E  E  E  E  E  E   
--------------------------|--------------------------|
--------------------------|--------------------------|
--5--5--5--5--5--5--5--5--|--7--7--7--7--7--7--7--7--|
--5--5--5--5--5--5--5--5--|--7--7--7--7--7--7--7--7--|
--3--3--3--3--3--3--3--3--|--5--5--5--5--5--5--5--5--|
--------------------------|--------------------------|


  E   E  E   E  E   E  E   E     E   E  E   E  E   E  E   E   
------------------------------|------------------------------|
------------------------------|------------------------------|
------------------------------|------------------------------|
------------------------------|--5p--0-----------------------|
----------------5p--0--7p--0--|---------7p--0--5p--0--7p--0--|
--5p--0--7p--0----------------|------------------------------|


  E   E  E   E  E   E  E   E     E   E  E   E  E   E  E   E   
------------------------------|------------------------------|
------------------------------|------------------------------|
------------------------------|------------------------------|
------------------------------|--5p--0--7p--0--5p--0---------|
----------------5p--0--7p--0--|-----------------------7p--0--|
--5p--0--7p--0----------------|------------------------------|


  E   E  E   E  E   E  E   E     E   E  E   E  E   E  E   E   
------------------------------|------------------------------|
------------------------------|------------------------------|
------------------------------|------------------------------|
------------------------------|--5p--0-----------------------|
----------------5p--0--7p--0--|---------7p--0--5p--0--7p--0--|
--5p--0--7p--0----------------|------------------------------|


                                                PM PM PM PM           PM  
  Q    Q    Q    Q       Q    Q    Q    Q       E  E  E  E  E   E  E  E   
----------------------|----------------------|---------------------------|
----------------------|----------------------|---------------------------|
--5----5--------------|--7----7--------------|--------------9\--7--7-----|
--5----5--------------|--7----7--------------|--------------9\--7--7-----|
--3----3--------------|--5----5--------------|--------------7\--5--5-----|
----------------------|----------------------|--0--0--0--0------------0--|


  PM PM PM PM           PM    PM PM PM PM           PM  
  E  E  E  E  E   E  E  E     E  E  E  E  E   E  E  E   
---------------------------|---------------------------|
---------------------------|---------------------------|
--------------7s--9--9-----|--------------9\--7--7-----|
--------------7s--9--9-----|--------------9\--7--7-----|
--------------5s--7--7-----|--------------7\--5--5-----|
--0--0--0--0------------0--|--0--0--0--0------------0--|


                                 PM PM PM PM           PM  
  E   E  E   E  E   E  E   E     E  E  E  E  E   E  E  E   
------------------------------|---------------------------|
------------------------------|---------------------------|
------------------------------|--------------9\--7--7-----|
-----------------------5p--0--|--------------9\--7--7-----|
----------------5p--0---------|--------------7\--5--5-----|
--5p--0--7p--0----------------|--0--0--0--0------------0--|


  PM PM PM PM           PM    PM PM PM PM           PM  
  E  E  E  E  E   E  E  E     E  E  E  E  E   E  E  E   
---------------------------|---------------------------|
---------------------------|---------------------------|
--------------7s--9--9-----|--------------9\--7--7-----|
--------------7s--9--9-----|--------------9\--7--7-----|
--------------5s--7--7-----|--------------7\--5--5-----|
--0--0--0--0------------0--|--0--0--0--0------------0--|


                                 PM PM PM PM           PM  
  E   E  E   E  E   E  E   E     E  E  E  E  E   E  E  E   
------------------------------|---------------------------|
------------------------------|---------------------------|
------------------------------|--------------9\--7--7-----|
-----------------------5p--0--|--------------9\--7--7-----|
----------------5p--0---------|--------------7\--5--5-----|
--5p--0--7p--0----------------|--0--0--0--0------------0--|


  PM PM PM PM           PM    PM PM PM PM           PM  
  E  E  E  E  E   E  E  E     E  E  E  E  E   E  E  E   
---------------------------|---------------------------|
---------------------------|---------------------------|
--------------7s--9--9-----|--------------9\--7--7-----|
--------------7s--9--9-----|--------------9\--7--7-----|
--------------5s--7--7-----|--------------7\--5--5-----|
--0--0--0--0------------0--|--0--0--0--0------------0--|


                                 PM PM PM PM           PM  
  E   E  E   E  E   E  E   E     E  E  E  E  E   E  E  E   
------------------------------|---------------------------|
------------------------------|---------------------------|
------------------------------|--------------9\--7--7-----|
-----------------------5p--0--|--------------9\--7--7-----|
----------------5p--0---------|--------------7\--5--5-----|
--5p--0--7p--0----------------|--0--0--0--0------------0--|


  PM PM PM PM           PM    PM PM PM PM           PM  
  E  E  E  E  E   E  E  E     E  E  E  E  E   E  E  E   
---------------------------|---------------------------|
---------------------------|---------------------------|
--------------7s--9--9-----|--------------9\--7--7-----|
--------------7s--9--9-----|--------------9\--7--7-----|
--------------5s--7--7-----|--------------7\--5--5-----|
--0--0--0--0------------0--|--0--0--0--0------------0--|


  E   E  E   E  E   E  E   E     Q    Q    Q     Q       Q    Q    Q     Q     
------------------------------|-----------------------|-----------------------|
------------------------------|-----------------------|-----------------------|
------------------------------|--5----5----L\---------|--7----7----L\---------|
-----------------------5p--0--|--5----5----L\---------|--7----7----L\---------|
----------------5p--0---------|--3----3----L\---------|--5----5----L\---------|
--5p--0--7p--0----------------|-----------------------|-----------------------|


  E   E  E   E  E   E  E   E     E   E  E   E  E   E  E   E   
------------------------------|------------------------------|
------------------------------|------------------------------|
------------------------------|------------------------------|
------------------------------|--5p--0-----------------------|
----------------5p--0--7p--0--|---------7p--0--5p--0--7p--0--|
--5p--0--7p--0----------------|------------------------------|


  Q    Q    Q     Q       Q    Q    Q     Q       E   E  E   E  E   E  E   E   
-----------------------|-----------------------|------------------------------|
-----------------------|-----------------------|------------------------------|
--7----7----L\---------|-----------------------|------------------------------|
--7----7----L\---------|--7----7----L\---------|------------------------------|
--5----5----L\---------|--7----7----L\---------|----------------5p--0--7p--0--|
-----------------------|--5----5----5\---------|--5p--0--7p--0----------------|


  E   E  E   E  E   E  E   E     Q    Q    Q     Q       Q    Q    Q     Q     
------------------------------|-----------------------|-----------------------|
------------------------------|-----------------------|-----------------------|
------------------------------|--5----5----L\---------|--7----7----L\---------|
--5p--0--7p--0--5p--0---------|--5----5----L\---------|--7----7----L\---------|
-----------------------7p--0--|--3----3----L\---------|--5----5----L\---------|
------------------------------|-----------------------|-----------------------|


  E   E  E   E  E   E  E   E     E   E  E   E  E   E  E   E   
------------------------------|------------------------------|
------------------------------|------------------------------|
------------------------------|------------------------------|
------------------------------|--5p--0-----------------------|
----------------5p--0--7p--0--|---------7p--0--5p--0--7p--0--|
--5p--0--7p--0----------------|------------------------------|


  Q    Q    Q     Q       Q    Q    Q     Q       E  E  E  E  E  E  E  E   
-----------------------|-----------------------|--------------------------|
-----------------------|-----------------------|--------------------------|
--7----7----L\---------|-----------------------|--5--5--5--5--5--5--5--5--|
--7----7----L\---------|--7----7----L\---------|--5--5--5--5--5--5--5--5--|
--5----5----L\---------|--7----7----L\---------|--3--3--3--3--3--3--3--3--|
-----------------------|--5----5----5\---------|--------------------------|


  E  E  E  E  E  E  E  E     E  E  E  E  Q     Q       W                 
--------------------------|-------------------------|-------------------|
--------------------------|-------------------------|-------------------|
--7--7--7--7--7--7--7--7--|--9--9--9--9--9\---------|-------------------|
--7--7--7--7--7--7--7--7--|--9--9--9--9--9\---------|-------------------|
--5--5--5--5--5--5--5--5--|--7--7--7--7--7\---------|-------------------|
--------------------------|-------------------------|-------------------|


  E  E  E  E  Q     Q       W                   E  E  E  E  Q     E   E    
-------------------------|-------------------|----------------------------|
-------------------------|-------------------|-----------------------15---|
--9--9--9--9--9\---------|-------------------|--9--9--9--9--9\-------14b--|
--9--9--9--9--9\---------|-------------------|--9--9--9--9--9\------------|
--7--7--7--7--7\---------|-------------------|--7--7--7--7--7\------------|
-------------------------|-------------------|----------------------------|


                   W                                          
   Q.       S   S  H            E  E  E  E  Q     Q           
-----------------------------|-------------------------|-----|
---L-------------------------|-------------------------|-----|
---Lb------14p-12-14~--------|--9--9--9--9--9\---------|-----|
-----------------------------|--9--9--9--9--9\---------|-----|
-----------------------------|--7--7--7--7--7\---------|-----|
-----------------------------|-------------------------|-----|


  Q.     E   Q.       E      Q    E   E   E   E     E   E   
-------------------------|---------------------------------|
------------15b------15--|---L----x--15--12----------------|
--9------9---------------|--------x----------14br--12------|
--9------9---------------|--------x--------------------14--|
--7------7---------------|---------------------------------|
-------------------------|---------------------------------|


   E   E   E   E.   E    S  E   E      E   E   E   E   E   E   Q      
-----------------------------------|---------------------------------|
-------------------14b-------------|---------------------------------|
--14------12-------14b--12-14--12--|------14------12-----------------|
------14------14-------------------|--14------14------14--12--14\----|
-----------------------------------|---------------------------------|
-----------------------------------|---------------------------------|


  E   E  E   E  E   E  E   E     E   E  E   E  E   E  E   E   
------------------------------|------------------------------|
------------------------------|------------------------------|
------------------------------|------------------------------|
------------------------------|--5p--0-----------------------|
----------------5p--0--7p--0--|---------7p--0--5p--0--7p--0--|
--5p--0--7p--0----------------|------------------------------|


  E   E  E   E  E   E  E   E     E   E  E   E  E   E  E   E   
------------------------------|------------------------------|
------------------------------|------------------------------|
------------------------------|------------------------------|
------------------------------|--5p--0--7p--0--5p--0---------|
----------------5p--0--7p--0--|-----------------------7p--0--|
--5p--0--7p--0----------------|------------------------------|


  E   E  E   E  E   E  E   E     E   E  E   E  E   E  E   E   
------------------------------|------------------------------|
------------------------------|------------------------------|
------------------------------|------------------------------|
------------------------------|--5p--0-----------------------|
----------------5p--0--7p--0--|---------7p--0--5p--0--7p--0--|
--5p--0--7p--0----------------|------------------------------|


  E   E  E   E  E   E  E   E     E   E  E   E  E   E  E   E   
------------------------------|------------------------------|
------------------------------|------------------------------|
------------------------------|------------------------------|
------------------------------|--5p--0--7p--0--5p--0---------|
----------------5p--0--7p--0--|-----------------------7p--0--|
--5p--0--7p--0----------------|------------------------------|


  PM PM PM PM           PM    PM PM PM PM           PM  
  E  E  E  E  E   E  E  E     E  E  E  E  E   E  E  E   
---------------------------|---------------------------|
---------------------------|---------------------------|
--------------9\--7--7-----|--------------7s--9--9-----|
--------------9\--7--7-----|--------------7s--9--9-----|
--------------7\--5--5-----|--------------5s--7--7-----|
--0--0--0--0------------0--|--0--0--0--0------------0--|


  PM PM PM PM           PM    PM PM PM PM           PM  
  E  E  E  E  E   E  E  E     E  E  E  E  E   E  E  E   
---------------------------|---------------------------|
---------------------------|---------------------------|
--------------9\--7--7-----|--------------7s--9--9-----|
--------------9\--7--7-----|--------------7s--9--9-----|
--------------7\--5--5-----|--------------5s--7--7-----|
--0--0--0--0------------0--|--0--0--0--0------------0--|


  PM PM PM PM           PM    PM PM PM PM           PM  
  E  E  E  E  E   E  E  E     E  E  E  E  E   E  E  E   
---------------------------|---------------------------|
---------------------------|---------------------------|
--------------9\--7--7-----|--------------7s--9--9-----|
--------------9\--7--7-----|--------------7s--9--9-----|
--------------7\--5--5-----|--------------5s--7--7-----|
--0--0--0--0------------0--|--0--0--0--0------------0--|


  PM PM PM PM           PM    PM PM PM PM           PM                          
  E  E  E  E  E   E  E  E     E  E  E  E  E   E  E  E     Q    Q    Q     Q     
---------------------------|---------------------------|-----------------------|
---------------------------|---------------------------|-----------------------|
--------------9\--7--7-----|--------------7s--9--9-----|--5----5----L\---------|
--------------9\--7--7-----|--------------7s--9--9-----|--5----5----L\---------|
--------------7\--5--5-----|--------------5s--7--7-----|--3----3----L\---------|
--0--0--0--0------------0--|--0--0--0--0------------0--|-----------------------|


  Q    Q    Q     Q       E   E  E   E  E   E  E   E   
-----------------------|------------------------------|
-----------------------|------------------------------|
--7----7----L\---------|------------------------------|
--7----7----L\---------|------------------------------|
--5----5----L\---------|----------------5p--0--7p--0--|
-----------------------|--5p--0--7p--0----------------|


  E   E  E   E  E   E  E   E     Q    Q    Q     Q       Q    Q    Q     Q     
------------------------------|-----------------------|-----------------------|
------------------------------|-----------------------|-----------------------|
------------------------------|--7----7----L\---------|-----------------------|
--5p--0-----------------------|--7----7----L\---------|--7----7----L\---------|
---------7p--0--5p--0--7p--0--|--5----5----L\---------|--7----7----L\---------|
------------------------------|-----------------------|--5----5----L\---------|


  E   E  E   E  E   E  E   E     E   E  E   E  E   E  E   E   
------------------------------|------------------------------|
------------------------------|------------------------------|
------------------------------|------------------------------|
------------------------------|--5p--0--7p--0--5p--0---------|
----------------5p--0--7p--0--|-----------------------7p--0--|
--5p--0--7p--0----------------|------------------------------|


  Q    Q    Q     Q       Q    Q    Q     Q       E   E  E   E  E   E  E   E   
-----------------------|-----------------------|------------------------------|
-----------------------|-----------------------|------------------------------|
--5----5----L\---------|--7----7----L\---------|------------------------------|
--5----5----L\---------|--7----7----L\---------|------------------------------|
--3----3----L\---------|--5----5----L\---------|----------------5p--0--7p--0--|
-----------------------|-----------------------|--5p--0--7p--0----------------|


  E   E  E   E  E   E  E   E     Q    Q    Q     Q       Q    Q    Q     Q     
------------------------------|-----------------------|-----------------------|
------------------------------|-----------------------|-----------------------|
------------------------------|--7----7----L\---------|-----------------------|
--5p--0-----------------------|--7----7----L\---------|--7----7----L\---------|
---------7p--0--5p--0--7p--0--|--5----5----L\---------|--7----7----L\---------|
------------------------------|-----------------------|--5----5----L\---------|


  E   E  E   E  E   E  E   E     E   E  E   E  E   E  E   E   
------------------------------|------------------------------|
------------------------------|------------------------------|
------------------------------|------------------------------|
------------------------------|--5p--0--7p--0--5p--0---------|
----------------5p--0--7p--0--|-----------------------7p--0--|
--5p--0--7p--0----------------|------------------------------|


  Q    Q    Q     Q       Q    Q    Q     Q       E   E  E   E  E   E  E   E   
-----------------------|-----------------------|------------------------------|
-----------------------|-----------------------|------------------------------|
--5----5----L\---------|--7----7----L\---------|------------------------------|
--5----5----L\---------|--7----7----L\---------|------------------------------|
--3----3----L\---------|--5----5----L\---------|----------------5p--0--7p--0--|
-----------------------|-----------------------|--5p--0--7p--0----------------|


  E   E  E   E  E   E  E   E     Q    Q    Q     Q       Q    Q    Q     Q     
------------------------------|-----------------------|-----------------------|
------------------------------|-----------------------|-----------------------|
------------------------------|--7----7----L\---------|-----------------------|
--5p--0-----------------------|--7----7----L\---------|--7----7----L\---------|
---------7p--0--5p--0--7p--0--|--5----5----L\---------|--7----7----L\---------|
------------------------------|-----------------------|--5----5----L\---------|


  E   E  E   E  E   E  E   E     E   E  E   E  E   E  E   E   
------------------------------|------------------------------|
------------------------------|------------------------------|
------------------------------|------------------------------|
------------------------------|--5p--0--7p--0--5p--0---------|
----------------5p--0--7p--0--|-----------------------7p--0--|
--5p--0--7p--0----------------|------------------------------|


  Q    Q    Q     Q       Q    Q    Q     Q       E   E  E   E  E   E  E   E   
-----------------------|-----------------------|------------------------------|
-----------------------|-----------------------|------------------------------|
--5----5----L\---------|--7----7----L\---------|------------------------------|
--5----5----L\---------|--7----7----L\---------|------------------------------|
--3----3----L\---------|--5----5----L\---------|----------------5p--0--7p--0--|
-----------------------|-----------------------|--5p--0--7p--0----------------|


  E   E  E   E  E   E  E   E     Q    Q    Q     Q       Q    Q    Q     Q     
------------------------------|-----------------------|-----------------------|
------------------------------|-----------------------|-----------------------|
------------------------------|--7----7----L\---------|-----------------------|
--5p--0-----------------------|--7----7----L\---------|--7----7----L\---------|
---------7p--0--5p--0--7p--0--|--5----5----L\---------|--7----7----L\---------|
------------------------------|-----------------------|--5----5----L\---------|


  E  E  E  E  E  E  E  E     E  E  E  E  E  E  E  E   
--------------------------|--------------------------|
--------------------------|--------------------------|
--5--5--5--5--5--5--5--5--|--7--7--7--7--7--7--7--7--|
--5--5--5--5--5--5--5--5--|--7--7--7--7--7--7--7--7--|
--3--3--3--3--3--3--3--3--|--5--5--5--5--5--5--5--5--|
--------------------------|--------------------------|


  E   E  E   E  E   E  E   E     E   E  E   E  E   E  E   E   
------------------------------|------------------------------|
------------------------------|------------------------------|
------------------------------|------------------------------|
------------------------------|--5p--0-----------------------|
----------------5p--0--7p--0--|---------7p--0--5p--0--7p--0--|
--5p--0--7p--0----------------|------------------------------|


  E   E  E   E  E   E  E   E     E   E  E   E  E   E  E   E   
------------------------------|------------------------------|
------------------------------|------------------------------|
------------------------------|------------------------------|
------------------------------|--5p--0--7p--0--5p--0---------|
----------------5p--0--7p--0--|-----------------------7p--0--|
--5p--0--7p--0----------------|------------------------------|


  E   E  E   E  E   E  E   E     E   E  E   E  E   E  E   E   
------------------------------|------------------------------|
------------------------------|------------------------------|
------------------------------|------------------------------|
------------------------------|--5p--0-----------------------|
----------------5p--0--7p--0--|---------7p--0--5p--0--7p--0--|
--5p--0--7p--0----------------|------------------------------|


  E   E  E   E  E   E  E   E     E   E  E   E  E   E  E   E   
------------------------------|------------------------------|
------------------------------|------------------------------|
------------------------------|------------------------------|
------------------------------|--5p--0--7p--0--5p--0---------|
----------------5p--0--7p--0--|-----------------------7p--0--|
--5p--0--7p--0----------------|------------------------------|


  E   E  E   E  E   E  E   E     E   E  E   E  E   E  E   E   
------------------------------|------------------------------|
------------------------------|------------------------------|
------------------------------|------------------------------|
------------------------------|--5p--0-----------------------|
----------------5p--0--7p--0--|---------7p--0--5p--0--7p--0--|
--5p--0--7p--0----------------|------------------------------|


  E   E  E   E  E   E  E   E     E   E  E   E  E   E  E   E   
------------------------------|------------------------------|
------------------------------|------------------------------|
------------------------------|------------------------------|
------------------------------|--5p--0--7p--0--5p--0---------|
----------------5p--0--7p--0--|-----------------------7p--0--|
--5p--0--7p--0----------------|------------------------------|


  E   E  E   E  E   E  E   E     E   E  E   E  E   E  E   E   
------------------------------|------------------------------|
------------------------------|------------------------------|
------------------------------|------------------------------|
------------------------------|--5p--0-----------------------|
----------------5p--0--7p--0--|---------7p--0--5p--0--7p--0--|
--5p--0--7p--0----------------|------------------------------|


  E   E  E   E  E   E  E   E     E  E   E  E   E  E  Q      
------------------------------|---------------------------||
------------------------------|---------------------------||
------------------------------|---------------------------||
------------------------------|--0--5p--0-----------------||
----------------5p--0--7p--0--|---------------------------||
--5p--0--7p--0----------------|------------5p--0----------||




======================================================================

Guitar - lead
                                                                    W          
                          H        Q    E   E       Q.       S   S  H          
-------|-------|-------|------------------------|-----------------------------|
-------|-------|-------|-------------------15---|---L-------------------------|
-------|-------|-------|-------------------14b--|---Lb------14p-12-14~--------|
-------|-------|-------|------------------------|-----------------------------|
-------|-------|-------|------------------------|-----------------------------|
-------|-------|-------|------------------------|-----------------------------|


   Q     H.                      H         Q.       E   
----------------------|-------|------------------------|
----------------------|-------|-----------15b------15--|
---L\-----------------|-------|------------------------|
----------------------|-------|------------------------|
----------------------|-------|------------------------|
----------------------|-------|------------------------|


   Q    E   E   E   E     E   E      E   E   E   E.   E    S  E   E   
---------------------------------|-----------------------------------|
---L----x--15--12----------------|-------------------14b-------------|
--------x----------14br--12------|--14------12-------14b--12-14--12--|
--------x--------------------14--|------14------14-------------------|
---------------------------------|-----------------------------------|
---------------------------------|-----------------------------------|


   E   E   E   E   E   E   Q                                              
---------------------------------|-------|-------|-------|-------|-------|
---------------------------------|-------|-------|-------|-------|-------|
------14------12-----------------|-------|-------|-------|-------|-------|
--14------14------14--12--14\----|-------|-------|-------|-------|-------|
---------------------------------|-------|-------|-------|-------|-------|
---------------------------------|-------|-------|-------|-------|-------|


  H         H             H.               E     S   S  
-----------17b--------|---Lpbr-------------Lpb--17p-15-|
----------------------|--------------------------------|
----------------------|--------------------------------|
----------------------|--------------------------------|
----------------------|--------------------------------|
----------------------|--------------------------------|


   E  E.   E  E.   Q.                                                       
--17------17------17b------|-------|-------|-------|-------|-------|-------|
---------------------------|-------|-------|-------|-------|-------|-------|
---------------------------|-------|-------|-------|-------|-------|-------|
---------------------------|-------|-------|-------|-------|-------|-------|
---------------------------|-------|-------|-------|-------|-------|-------|
---------------------------|-------|-------|-------|-------|-------|-------|



Outro

                  W                    H.              E   E   
-------|-------|--------------------|-------------------------|
-------|-------|--------------------|-------------------------|
-------|-------|--9b----------------|--Lpbr------------9p--7--|
-------|-------|--------------------|-------------------------|
-------|-------|--------------------|-------------------------|
-------|-------|--------------------|-------------------------|


                                                     W                       
  W                   Q     E  S  S E  S  S E.  S    H.           S S S   S  
-------------------|------------------------------|-------------------------|
-------------------|------------------------------|-------------------------|
--9----------------|--L\----4--2p-0-4--2p-0-4---2-|--4----------------------|
-------------------|------------------------------|---------------2-2-2h~-4-|
-------------------|------------------------------|-------------------------|
-------------------|------------------------------|-------------------------|


  H         H           H.           Q       H.            S S E   
---------------------|--------------------|-----------------------|
---------------------|---------------8----|--Lb-------------------|
---------------------|--9-----------------|----------------x---7--|
--2~-----------------|--------------------|----------------x-x----|
---------------------|--------------------|------------------x----|
---------------------|--------------------|-----------------------|


             PH                                       
  E  E  E    E  E  E  E  E     E  E  E  E  Q    Q     
----------------------------|------------------------|
----------------------------|------------------------|
--9--7-----<>9--7-----9--7--|-----9--7-----9----9----|
--------9----------9--------|--9--------9------------|
----------------------------|------------------------|
----------------------------|------------------------|


  Q    E   E  E  E   Q       E   E   E    E   Q     Q      
--------------------------|------------------24\---------||
-------8--10--8-----10----|--8--10--12s--15--17\---------||
--L--------------9--------|------------------------------||
--------------------------|------------------------------||
--------------------------|------------------------------||
--------------------------|------------------------------||




Duration Legend
---------------
W - whole
H - half
Q - quarter
E - 8th
S - 16th
T - 32nd
X - 64th
. - note dotted
|-n-|  - n-tuplets


Tablature Legend
----------------
L - tied note
x - dead note
g - grace note
(n) - ghost note
> - accentuded note
NH - natural harmonic
AH - artificial harmonic
TH - tapped harmonic
SH - semi harmonic
PH - pitch harmonic
h - hammer on
p - pull off
b - bend
br - bendRelease
pb - preBend
pbr - preBendRelease
brb - bendReleaseBend
\n/ - tremolo bar dip
\n - tremolo bar dive
-/n - tremolo bar Release up
/n\ - tremolo bar inverted dip
/n - tremolo bar return
-\n - tremolo bar Release down
S - shift slide
s - legato slide
/ -  slide into from below or out of upwards
\ -  slide into from above or out of downwards
~ - vibrato
W - wide vibrato
tr - trill
TP - tremolo picking
T - tapping
S - slap
P - pop
< - fade in
^ - brush up
v - brush down
comments
We did not receive enough feedback on this tab! Please rate:
print report bad tab
1 2 3 4 5
I want to post or [tab]
guest
You may want to rate the tab now too:
select rating
Please do not post tabs as comments. Select "correction" instead!