Oops, an error
Loading. Please wait.

Ill Fall In Love Again Tab

ver1
ver1

Whole song

Interactive

More versions @911Tabs.com
1,559 views 3 this week
no commentswrite comment
1 2 3 4 5
excellent!
x 1
Autoscroll
+/-
esc
set tempo
stop
Contributor
Difficulty
novice
Hey! There's an official Ultimate Guitar app which is ideal
for learning songs when you're away from computer. Get the app
WARNING: You are trying to view
                                    content from Ultimate-Guitar.com
                                    in an unauthorized application,
                                    which is prohibited.

                                    Please use an official Ultimate
                                    Guitar Tabs application for iPhone,
                                    iPad or Android to access legitimate
                                    chords, guitar, bass, and drum tabs
                                    from Ultimate-Guitar.com database.

                                    Type "ultimate guitar tabs" in Apple
                                    App Store's or Android Market's
                                    search to find the application.
-----------------------------------------------------------------------------
                                  
             I'll Fall In Love Again - Sammy Hagar (GUITAR)
            
-----------------------------------------------------------------------------
Tabbed by: Scotto10

Tuning: standard tuning

=============================================================================

Guitar 1



             Q    E  H        E     W                   Q    E  H        E   
E||-------|----------------------|-------------------|----------3--------L--|
B||-------|--3-------2--------L--|--L----------------|--2-------3--------L--|
G||-------|--2-------2--------L--|--L----------------|--2-------4--------L--|
D||-------|--4-------2--------L--|--L----------------|--2-------5--------L--|
A||-------|--0-------0--------L--|--L----------------|--0-------------------|
E||-------|----------------------|-------------------|----------------------|


  W                   Q    E  H        E     H        E  E  E  E   
--L----------------|--3-------2--------L--|--L--------2--2-----2--|
--L----------------|--3-------3--------L--|--L--------3--3-----3--|
--L----------------|--4-------2--------L--|--L--------2--2-----2--|
--L----------------|--5-------0--------L--|--L--------0--0-----0--|
-------------------|----------------------|-----------------------|
-------------------|----------------------|-----------------------|


        PM              PM                                       
  E  E  H.              W                   Q    E  H        E   
---------------------|-------------------|----------------------|
---------------------|-------------------|--3-------2--------L--|
--------2------------|--L----------------|--2-------2--------L--|
--------2------------|--L----------------|--4-------2--------L--|
--------0------------|--L----------------|--0-------0--------L--|
-----0---------------|-------------------|----------------------|


  W                   Q    E  H        E     W                 
-------------------|----------3--------L--|--L----------------|
--L----------------|--2-------3--------L--|--L----------------|
--L----------------|--2-------4--------L--|--L----------------|
--L----------------|--2-------5--------L--|--L----------------|
--L----------------|--0-------------------|-------------------|
-------------------|----------------------|-------------------|


                                                       PM            
  Q    E  H        E     H        E  E  E  E     E  E  H.            
--3-------2--------L--|--L--------2--2-----2--|---------------------|
--3-------3--------L--|--L--------3--3-----3--|---------------------|
--4-------2--------L--|--L--------2--2-----2--|--------2------------|
--5-------0--------L--|--L--------0--0-----0--|--------2------------|
----------------------|-----------------------|--------0------------|
----------------------|-----------------------|-----0---------------|


  PM          PM PM PM                                                 
  H        E  E  E  E     Q    E  Q.     Q       Q    E  Q    E  Q     
-----------------------|----------------------|-----------------------|
-----------------------|--3-------2-----------|--3-------2------------|
--L--------------------|--2-------2-----------|--2-------2----2-------|
--L--------------------|--4-------2-----------|--4-------2----2-------|
--L--------------------|--0-------0-----------|--0-------0----0-------|
--------------0--0--0--|----------------------|-----------------------|


  Q    Q    Q    E  E     Q    E  Q    E  E  E     Q    E  Q.     Q     
-----------------------|--3-------3----3--3-----|----------------------|
-------3----2----------|--3-------3----3--3-----|--3-------2-----------|
-------2----2----0-----|--0-------0----0--0-----|--2-------2-----------|
-------4----2----2-----|--0-------0----0--0-----|--4-------2-----------|
-------0----0----------|------------------------|--0-------0-----------|
--------------------0--|--3-------3----3--3-----|----------------------|


  Q    E  Q    E  Q       Q    Q    Q    E  E     W                 
-----------------------|-----------------------|--2----------------|
--3-------2------------|-------3----2----------|--3----------------|
--2-------2----2-------|-------2----2----0-----|--2----------------|
--4-------2----2-------|-------4----2----2-----|--0----------------|
--0-------0----0-------|-------0----0----------|-------------------|
-----------------------|--------------------0--|-------------------|


  Q    E  Q    E  E  E     E  E  H        Q       E  E  H.            
--3----L--3----3--3--3--|--3--2----------------|---------------------|
--3----L--3----3--3--3--|--3--3--3--------L----|--3------------------|
--2----L--2----2--2--2--|--2--2--2-------------|--2------------------|
--0----L--0----0--0--0--|--------0--------L----|--0------------------|
------------------------|----------------------|---------------------|
------------------------|----------------------|---------------------|


  Q    E  H        E     W                   Q    E  H        E   
----------------------|-------------------|----------3--------L--|
--3-------2--------L--|--L----------------|--2-------3--------L--|
--2-------2--------L--|--L----------------|--2-------4--------L--|
--4-------2--------L--|--L----------------|--2-------5--------L--|
--0-------0--------L--|--L----------------|--0-------------------|
----------------------|-------------------|----------------------|


  W                   Q    E  H        E     H        E  E  E  E   
--L----------------|--3-------2--------L--|--L--------2--2-----2--|
--L----------------|--3-------3--------L--|--L--------3--3-----3--|
--L----------------|--4-------2--------L--|--L--------2--2-----2--|
--L----------------|--5-------0--------L--|--L--------0--0-----0--|
-------------------|----------------------|-----------------------|
-------------------|----------------------|-----------------------|


        PM              PM                                       
  E  E  H.              W                   Q    E  H        E   
---------------------|-------------------|----------------------|
---------------------|-------------------|--3-------2--------L--|
--------2------------|--L----------------|--2-------2--------L--|
--------2------------|--L----------------|--4-------2--------L--|
--------0------------|--L----------------|--0-------0--------L--|
-----0---------------|-------------------|----------------------|


  W                   Q    E  H        E     W                 
-------------------|----------3--------L--|--L----------------|
--L----------------|--2-------3--------L--|--L----------------|
--L----------------|--2-------4--------L--|--L----------------|
--L----------------|--2-------5--------L--|--L----------------|
--L----------------|--0-------------------|-------------------|
-------------------|----------------------|-------------------|


                                                       PM            
  Q    E  H        E     H        E  E  E  E     E  E  H.            
--3-------2--------L--|--L--------2--2-----2--|---------------------|
--3-------3--------L--|--L--------3--3-----3--|---------------------|
--4-------2--------L--|--L--------2--2-----2--|--------2------------|
--5-------0--------L--|--L--------0--0-----0--|--------2------------|
----------------------|-----------------------|--------0------------|
----------------------|-----------------------|-----0---------------|


  PM          PM PM PM                                                 
  H        E  E  E  E     Q    E  Q.     Q       Q    E  Q    E  Q     
-----------------------|----------------------|-----------------------|
-----------------------|--3-------2-----------|--3-------2------------|
--L--------------------|--2-------2-----------|--2-------2----2-------|
--L--------------------|--4-------2-----------|--4-------2----2-------|
--L--------------------|--0-------0-----------|--0-------0----0-------|
--------------0--0--0--|----------------------|-----------------------|


  Q    Q    Q    E  E     Q    E  Q    E  E  E     Q    E  Q.     Q     
-----------------------|--3-------3----3--3-----|----------------------|
-------3----2----------|--3-------3----3--3-----|--3-------2-----------|
-------2----2----0-----|--0-------0----0--0-----|--2-------2-----------|
-------4----2----2-----|--0-------0----0--0-----|--4-------2-----------|
-------0----0----------|------------------------|--0-------0-----------|
--------------------0--|--3-------3----3--3-----|----------------------|


  Q    E  Q    E  Q       Q    Q    Q    E  E     W                 
-----------------------|-----------------------|--2----------------|
--3-------2------------|-------3----2----------|--3----------------|
--2-------2----2-------|-------2----2----0-----|--2----------------|
--4-------2----2-------|-------4----2----2-----|--0----------------|
--0-------0----0-------|-------0----0----------|-------------------|
-----------------------|--------------------0--|-------------------|


  Q    E  Q    E  E  E     E  E  H        Q       E  E  H         
--3----L--3----3--3--3--|--3--2----------------|-----------------|
--3----L--3----3--3--3--|--3--3--3--------L----|--3--------------|
--2----L--2----2--2--2--|--2--2--2-------------|--2--------------|
--0----L--0----0--0--0--|--------0--------L----|--0--------------|
------------------------|----------------------|-----------------|
------------------------|----------------------|-----------------|


  E  E  H.              E  E  E  E  E  E  E   E     W                 
---------------------|---------------------------|-------------------|
---------------------|--3--------3---------------|-------------------|
---------------------|--2--------2------------2--|--L----------------|
--2------------------|--0--------0------------2--|--L----------------|
--0------------------|--------------------3b--0--|--L----------------|
---------------------|---------------------------|-------------------|


  E  E  E  E  E  E  E   E     W                   E  E  E  E  E  E  E   E   
---------------------------|-------------------|---------------------------|
--3--------3---------------|-------------------|--3--------3---------------|
--2--------2------------2--|--L----------------|--2--------2------------2--|
--0--------0------------2--|--L----------------|--0--------0------------2--|
--------------------3b--0--|--L----------------|--------------------3b--0--|
---------------------------|-------------------|---------------------------|


  W                   E  E  E  E  E  E  E   E     W                 
-------------------|---------------------------|-------------------|
-------------------|--3--------3---------------|-------------------|
--L----------------|--2--------2------------2--|--L----------------|
--L----------------|--0--------0------------2--|--L----------------|
--L----------------|--------------------3b--0--|--L----------------|
-------------------|---------------------------|-------------------|


  H        H           Q.     H        E     Q.     Q.     E   E   
--------------------|---------3--------L--|-----------------------|
--------------------|---------3--------L--|--3------2-------------|
--L-----------------|--2------0--------L--|--2------2----------2--|
--L-----------------|--2------0--------L--|--0------2----------2--|
--L-----------------|--0------------------|---------0------3b--0--|
--------------------|---------------------|-----------------------|


  W                   W                   Q.     H        E   
-------------------|-------------------|---------3--------L--|
-------------------|-------------------|---------3--------L--|
--L----------------|-------------------|--2------0--------L--|
--L----------------|-------------------|--2------0--------L--|
--L----------------|-------------------|--0------------------|
-------------------|-------------------|---------------------|


  Q.     Q.     E   E     W                         E  E  E  E  E  E  E  E   
-----------------------|-------------------|-----|--3-----3-----3-----3-----|
--3------2-------------|-------------------|-----|--3-----3-----3-----3-----|
--2------2----------2--|--L----------------|-----|--0-----0-----0-----0-----|
--0------2----------2--|--L----------------|-----|--0--0--0--0--0--0--0--0--|
---------0------3b--0--|--L----------------|-----|--------------------------|
-----------------------|-------------------|-----|-----3-----3-----3-----3--|


  E  E  Q    E  E  E  E     E  E  H        Q       Q.     Q.      
--L--3-------3-----3-----|--3--2--2--------L----|--2------2------|
--L--3-------3-----3-----|--3--3--3--------L----|--3------3------|
--L--0-------0-----0-----|--2--2--2--------L----|--2------2------|
-----0-------0-----0-----|--0--0--0--------L----|--0------0------|
-------------------------|--------0--------L----|----------------|
-------------------------|----------------------|----------------|


  W                   W                   Q    E  H        E   
-------------------|-------------------|----------3--------L--|
--2----------------|--L----------------|--2-------3--------L--|
--2----------------|--L----------------|--2-------4--------L--|
--2----------------|--L----------------|--2-------5--------L--|
--0----------------|--L----------------|--0-------------------|
-------------------|-------------------|----------------------|


  W                   Q    E  H        E     H        E  E  E  E   
--L----------------|--3-------2--------L--|--L--------2--2-----2--|
--L----------------|--3-------3--------L--|--L--------3--3-----3--|
--L----------------|--4-------2--------L--|--L--------2--2-----2--|
--L----------------|--5-------0--------L--|--L--------0--0-----0--|
-------------------|----------------------|-----------------------|
-------------------|----------------------|-----------------------|


        PM              PM                                       
  E  E  H.              W                   Q    E  H        E   
---------------------|-------------------|----------------------|
---------------------|-------------------|--3-------2--------L--|
--------2------------|--L----------------|--2-------2--------L--|
--------2------------|--L----------------|--4-------2--------L--|
--------0------------|--L----------------|--0-------0--------L--|
-----0---------------|-------------------|----------------------|


  W                   Q    E  H        E     W                 
-------------------|----------3--------L--|--L----------------|
--L----------------|--2-------3--------L--|--L----------------|
--L----------------|--2-------4--------L--|--L----------------|
--L----------------|--2-------5--------L--|--L----------------|
--L----------------|--0-------------------|-------------------|
-------------------|----------------------|-------------------|


                                                       PM            
  Q    E  H        E     H        E  E  E  E     E  E  H.            
--3-------2--------L--|--L--------2--2-----2--|---------------------|
--3-------3--------L--|--L--------3--3-----3--|---------------------|
--4-------2--------L--|--L--------2--2-----2--|--------2------------|
--5-------0--------L--|--L--------0--0-----0--|--------2------------|
----------------------|-----------------------|--------0------------|
----------------------|-----------------------|-----0---------------|


  PM          PM PM PM                                                 
  H        E  E  E  E     Q    E  Q.     Q       Q    E  Q    E  Q     
-----------------------|----------------------|-----------------------|
-----------------------|--3-------2-----------|--3-------2------------|
--L--------------------|--2-------2-----------|--2-------2----2-------|
--L--------------------|--4-------2-----------|--4-------2----2-------|
--L--------------------|--0-------0-----------|--0-------0----0-------|
--------------0--0--0--|----------------------|-----------------------|


  Q    Q    Q    E  E     Q    E  Q    E  E  E     Q    E  Q.     Q     
-----------------------|--3-------3----3--3-----|----------------------|
-------3----2----------|--3-------3----3--3-----|--3-------2-----------|
-------2----2----0-----|--0-------0----0--0-----|--2-------2-----------|
-------4----2----2-----|--0-------0----0--0-----|--4-------2-----------|
-------0----0----------|------------------------|--0-------0-----------|
--------------------0--|--3-------3----3--3-----|----------------------|


  Q    E  Q    E  Q       Q    Q    Q    E  E     W                 
-----------------------|-----------------------|--2----------------|
--3-------2------------|-------3----2----------|--3----------------|
--2-------2----2-------|-------2----2----0-----|--2----------------|
--4-------2----2-------|-------4----2----2-----|--0----------------|
--0-------0----0-------|-------0----0----------|-------------------|
-----------------------|--------------------0--|-------------------|


  Q    E  Q    E  E  E     Q    E  Q.     Q       Q    E  Q    E  Q     
--3----L--3----3--3--3--|----------------------|-----------------------|
--3----L--3----3--3--3--|--3-------2-----------|--3-------2------------|
--2----L--2----2--2--2--|--2-------2-----------|--2-------2----2-------|
--0----L--0----0--0--0--|--4-------2-----------|--4-------2----2-------|
------------------------|--0-------0-----------|--0-------0----0-------|
------------------------|----------------------|-----------------------|


  Q    Q    Q    E  E     Q    E  Q    E  E  E     Q    E  Q.     Q     
-----------------------|--3-------3----3--3-----|----------------------|
-------3----2----------|--3-------3----3--3-----|--3-------2-----------|
-------2----2----0-----|--0-------0----0--0-----|--2-------2-----------|
-------4----2----2-----|--0-------0----0--0-----|--4-------2-----------|
-------0----0----------|------------------------|--0-------0-----------|
--------------------0--|--3-------3----3--3-----|----------------------|


  Q    E  Q    E  Q       Q    Q    Q    E  E     W                 
-----------------------|-----------------------|--2----------------|
--3-------2------------|-------3----2----------|--3----------------|
--2-------2----2-------|-------2----2----0-----|--2----------------|
--4-------2----2-------|-------4----2----2-----|--0----------------|
--0-------0----0-------|-------0----0----------|-------------------|
-----------------------|--------------------0--|-------------------|


  Q    E  Q.     Q       Q    E  Q    E  Q       Q    Q    Q    E  E   
----------------------|-----------------------|-----------------------|
--3-------2-----------|--3-------2------------|-------3----2----------|
--2-------2-----------|--2-------2----2-------|-------2----2----0-----|
--4-------2-----------|--4-------2----2-------|-------4----2----2-----|
--0-------0-----------|--0-------0----0-------|-------0----0----------|
----------------------|-----------------------|--------------------0--|


  Q    E  Q    E  E  E     Q    E  Q.     Q       Q    E  Q    E  Q     
--3-------3----3--3-----|----------------------|-----------------------|
--3-------3----3--3-----|--3-------2-----------|--3-------2------------|
--0-------0----0--0-----|--2-------2-----------|--2-------2----2-------|
--0-------0----0--0-----|--4-------2-----------|--4-------2----2-------|
------------------------|--0-------0-----------|--0-------0----0-------|
--3-------3----3--3-----|----------------------|-----------------------|


  Q    Q    Q    E  E     W                   Q    E  Q    E  E  E   
-----------------------|--2----------------|--3----L--3----3--3--3--|
-------3----2----------|--3----------------|--3----L--3----3--3--3--|
-------2----2----0-----|--2----------------|--2----L--2----2--2--2--|
-------4----2----2-----|--0----------------|--0----L--0----0--0--0--|
-------0----0----------|-------------------|------------------------|
--------------------0--|-------------------|------------------------|


  Q    E  Q.     Q       Q    E  Q    E  Q       Q    Q    Q    E  E   
----------------------|-----------------------|-----------------------|
--3-------2-----------|--3-------2------------|-------3----2----------|
--2-------2-----------|--2-------2----2-------|-------2----2----0-----|
--4-------2-----------|--4-------2----2-------|-------4----2----2-----|
--0-------0-----------|--0-------0----0-------|-------0----0----------|
----------------------|-----------------------|--------------------0--|


  Q    E  Q    E  E  E     Q    E  Q.     Q       Q    E  Q    E  Q     
--3-------3----3--3-----|----------------------|-----------------------|
--3-------3----3--3-----|--3-------2-----------|--3-------2------------|
--0-------0----0--0-----|--2-------2-----------|--2-------2----2-------|
--0-------0----0--0-----|--4-------2-----------|--4-------2----2-------|
------------------------|--0-------0-----------|--0-------0----0-------|
--3-------3----3--3-----|----------------------|-----------------------|


  Q    Q    Q    E  E    
-----------------------||
-------3----2----------||
-------2----2----0-----||
-------4----2----2-----||
-------0----0----------||
--------------------0--||




==============================================================
==============================================================


Guitar 2



             PM PM PM PM PM PM PM PM    PM PM PM PM PM PM PM PM  
             E  E  E  E  E  E  E  E     E  E  E  E  E  E  E  E   
E||-------|--------------------------|--------------------------|
B||-------|--------------------------|--------------------------|
G||-------|--------------------------|--------------------------|
D||-------|--------------------------|--------------------------|
A||-------|--0--0--0--0--0--0--0--0--|--0--0--0--0--0--0--0--0--|
E||-------|--------------------------|--------------------------|


  PM PM PM PM PM PM PM PM    PM PM PM PM PM PM PM PM  
  E  E  E  E  E  E  E  E     E  E  E  E  E  E  E  E   
--------------------------|--------------------------|
--------------------------|--------------------------|
--------------------------|--------------------------|
--------------------------|--------------------------|
--0--0--0--0--0--0--0--0--|--0--0--0--0--0--0--0--0--|
--------------------------|--------------------------|


  PM PM PM PM PM PM PM PM    PM PM PM PM PM PM PM PM  
  E  E  E  E  E  E  E  E     E  E  E  E  E  E  E  E   
--------------------------|--------------------------|
--------------------------|--------------------------|
--------------------------|--------------------------|
--------------------------|--------------------------|
--0--0--0--0--0--0--0--0--|--0--0--0--0--0--0--0--0--|
--------------------------|--------------------------|


  PM PM PM PM PM PM PM PM    PM PM PM PM PM PM PM PM  
  E  E  E  E  E  E  E  E     E  E  E  E  E  E  E  E   
--------------------------|--------------------------|
--------------------------|--------------------------|
--------------------------|--------------------------|
--------------------------|--------------------------|
--0--0--0--0--0--0--0--0--|--0--0--0--0--0--0--0--0--|
--------------------------|--------------------------|


  PM PM PM PM PM PM PM PM    PM PM PM PM PM PM PM PM  
  E  E  E  E  E  E  E  E     E  E  E  E  E  E  E  E   
--------------------------|--------------------------|
--------------------------|--------------------------|
--------------------------|--------------------------|
--------------------------|--------------------------|
--0--0--0--0--0--0--0--0--|--0--0--0--0--0--0--0--0--|
--------------------------|--------------------------|


  PM PM PM PM PM PM PM PM    PM PM PM PM PM PM PM PM  
  E  E  E  E  E  E  E  E     E  E  E  E  E  E  E  E   
--------------------------|--------------------------|
--------------------------|--------------------------|
--------------------------|--------------------------|
--------------------------|--------------------------|
--0--0--0--0--0--0--0--0--|--0--0--0--0--0--0--0--0--|
--------------------------|--------------------------|


  PM PM PM PM PM PM PM PM    PM PM PM PM PM PM PM PM  
  E  E  E  E  E  E  E  E     E  E  E  E  E  E  E  E   
--------------------------|--------------------------|
--------------------------|--------------------------|
--------------------------|--------------------------|
--------------------------|--------------------------|
--0--0--0--0--0--0--0--0--|--0--0--0--0--0--0--0--0--|
--------------------------|--------------------------|


  PM PM PM PM PM PM PM PM    PM PM PM PM PM           
  E  E  E  E  E  E  E  E     E  E  E  E  E  E  E  E   
--------------------------|--------------------------|
--------------------------|--------------------------|
--------------------------|--------------------------|
--------------------------|--------------------------|
--0--0--0--0--0--0--0--0--|--0--0--0--0--0-----------|
--------------------------|-----------------0--0--0--|


   Q    E   Q     Q     E      Q    E   Q     E  E   E    
---------------------------|-----------------------------|
--15-------14-----L\-------|--15-------14----14----------|
--14-------14-----L\-------|--14-------14----14-----14~--|
--16-------14-----L\-------|--16-------14----14-----14~--|
---------------------------|-----------------------------|
---------------------------|-----------------------------|


   Q     Q    H           Q    E  Q    E  E  E      Q    E   Q     Q     E   
-----------------------|------------------------|---------------------------|
-----------------------|--8-------8----8--8-----|--15-------14-----L\-------|
---L\------------------|--7-------7----7--7-----|--14-------14-----L\-------|
---L\------------------|--5-------5----5--5-----|--16-------14-----L\-------|
-----------------------|------------------------|---------------------------|
-----------------------|------------------------|---------------------------|


   Q    E   Q     E  E   E       Q     Q    H           W                 
-----------------------------|-----------------------|-------------------|
--15-------14----14----------|-----------------------|-------------------|
--14-------14----14-----14~--|---L\------------------|-------------------|
--16-------14----14-----14~--|---L\------------------|--0----------------|
-----------------------------|-----------------------|-------------------|
-----------------------------|-----------------------|-------------------|


   E   E   E   E   E   E   E   E      E   E   H.            
----------10----------10----------|------------------------|
------10----------10------10------|------------------------|
--12----------12--------------12--|--12--12--11------------|
--12----------12------------------|--12--12--12------------|
----------------------------------|------------------------|
----------------------------------|------------------------|


                        PM PM PM PM PM PM PM PM    PM PM PM PM PM PM PM PM  
  E  E  H.              E  E  E  E  E  E  E  E     E  E  E  E  E  E  E  E   
---------------------|--------------------------|--------------------------|
---------------------|--------------------------|--------------------------|
---------------------|--------------------------|--------------------------|
--7------------------|--------------------------|--------------------------|
--5------------------|--0--0--0--0--0--0--0--0--|--0--0--0--0--0--0--0--0--|
---------------------|--------------------------|--------------------------|


  PM PM PM PM PM PM PM PM    PM PM PM PM PM PM PM PM  
  E  E  E  E  E  E  E  E     E  E  E  E  E  E  E  E   
--------------------------|--------------------------|
--------------------------|--------------------------|
--------------------------|--------------------------|
--------------------------|--------------------------|
--0--0--0--0--0--0--0--0--|--0--0--0--0--0--0--0--0--|
--------------------------|--------------------------|


  PM PM PM PM PM PM PM PM    PM PM PM PM PM PM PM PM  
  E  E  E  E  E  E  E  E     E  E  E  E  E  E  E  E   
--------------------------|--------------------------|
--------------------------|--------------------------|
--------------------------|--------------------------|
--------------------------|--------------------------|
--0--0--0--0--0--0--0--0--|--0--0--0--0--0--0--0--0--|
--------------------------|--------------------------|


  PM PM PM PM PM PM PM PM    PM PM PM PM PM PM PM PM  
  E  E  E  E  E  E  E  E     E  E  E  E  E  E  E  E   
--------------------------|--------------------------|
--------------------------|--------------------------|
--------------------------|--------------------------|
--------------------------|--------------------------|
--0--0--0--0--0--0--0--0--|--0--0--0--0--0--0--0--0--|
--------------------------|--------------------------|


  PM PM PM PM PM PM PM PM    PM PM PM PM PM PM PM PM  
  E  E  E  E  E  E  E  E     E  E  E  E  E  E  E  E   
--------------------------|--------------------------|
--------------------------|--------------------------|
--------------------------|--------------------------|
--------------------------|--------------------------|
--0--0--0--0--0--0--0--0--|--0--0--0--0--0--0--0--0--|
--------------------------|--------------------------|


  PM PM PM PM PM PM PM PM    PM PM PM PM PM PM PM PM  
  E  E  E  E  E  E  E  E     E  E  E  E  E  E  E  E   
--------------------------|--------------------------|
--------------------------|--------------------------|
--------------------------|--------------------------|
--------------------------|--------------------------|
--0--0--0--0--0--0--0--0--|--0--0--0--0--0--0--0--0--|
--------------------------|--------------------------|


  PM PM PM PM PM PM PM PM    PM PM PM PM PM PM PM PM  
  E  E  E  E  E  E  E  E     E  E  E  E  E  E  E  E   
--------------------------|--------------------------|
--------------------------|--------------------------|
--------------------------|--------------------------|
--------------------------|--------------------------|
--0--0--0--0--0--0--0--0--|--0--0--0--0--0--0--0--0--|
--------------------------|--------------------------|


  PM PM PM PM PM PM PM PM    PM PM PM PM PM           
  E  E  E  E  E  E  E  E     E  E  E  E  E  E  E  E   
--------------------------|--------------------------|
--------------------------|--------------------------|
--------------------------|--------------------------|
--------------------------|--------------------------|
--0--0--0--0--0--0--0--0--|--0--0--0--0--0-----------|
--------------------------|-----------------0--0--0--|


   Q    E   Q     Q     E      Q    E   Q     E  E   E    
---------------------------|-----------------------------|
--15-------14-----L\-------|--15-------14----14----------|
--14-------14-----L\-------|--14-------14----14-----14~--|
--16-------14-----L\-------|--16-------14----14-----14~--|
---------------------------|-----------------------------|
---------------------------|-----------------------------|


   Q     Q    H           Q    E  Q    E  E  E      Q    E   Q     Q     E   
-----------------------|------------------------|---------------------------|
-----------------------|--8-------8----8--8-----|--15-------14-----L\-------|
---L\------------------|--7-------7----7--7-----|--14-------14-----L\-------|
---L\------------------|--5-------5----5--5-----|--16-------14-----L\-------|
-----------------------|------------------------|---------------------------|
-----------------------|------------------------|---------------------------|


   Q    E   Q     E  E   E       Q     Q    H           W                 
-----------------------------|-----------------------|-------------------|
--15-------14----14----------|-----------------------|-------------------|
--14-------14----14-----14~--|---L\------------------|-------------------|
--16-------14----14-----14~--|---L\------------------|--0----------------|
-----------------------------|-----------------------|-------------------|
-----------------------------|-----------------------|-------------------|


   E   E   E   E   E   E   E   E      E   E   H.              E  E  H         
----------10----------10----------|------------------------|-----------------|
------10----------10------10------|------------------------|-----------------|
--12----------12--------------12--|--12--12--11------------|-----------------|
--12----------12------------------|--12--12--12------------|--7--------------|
----------------------------------|------------------------|--5--------------|
----------------------------------|------------------------|-----------------|


  PM PM PM PM PM PM PM PM    PM PM PM PM PM PM PM PM  
  E  E  E  E  E  E  E  E     E  E  E  E  E  E  E  E   
--------------------------|--------------------------|
--------------------------|--------------------------|
--------------------------|--------------------------|
--------------------------|--------------------------|
--0--0--0--0--0--0--0--0--|--0--0--0--0--0--0--0--0--|
--------------------------|--------------------------|


  PM PM PM PM PM PM PM PM    PM PM PM PM PM PM PM PM  
  E  E  E  E  E  E  E  E     E  E  E  E  E  E  E  E   
--------------------------|--------------------------|
--------------------------|--------------------------|
--------------------------|--------------------------|
--------------------------|--------------------------|
--0--0--0--0--0--0--0--0--|--0--0--0--0--0--0--0--0--|
--------------------------|--------------------------|


  PM PM PM PM PM PM PM PM    PM PM PM PM PM PM PM PM  
  E  E  E  E  E  E  E  E     E  E  E  E  E  E  E  E   
--------------------------|--------------------------|
--------------------------|--------------------------|
--------------------------|--------------------------|
--------------------------|--------------------------|
--0--0--0--0--0--0--0--0--|--0--0--0--0--0--0--0--0--|
--------------------------|--------------------------|


  PM PM PM PM PM PM PM PM    PM PM PM PM PM PM PM PM                          
  E  E  E  E  E  E  E  E     E  E  E  E  E  E  E  E                           
--------------------------|--------------------------|-----|-----|-----|-----|
--------------------------|--------------------------|-----|-----|-----|-----|
--------------------------|--------------------------|-----|-----|-----|-----|
--------------------------|--------------------------|-----|-----|-----|-----|
--0--0--0--0--0--0--0--0--|--0--0--0--0--0--0--0--0--|-----|-----|-----|-----|
--------------------------|--------------------------|-----|-----|-----|-----|


-----|-----|-----|-----|-----|-----|-----|-----|-----|-----|
-----|-----|-----|-----|-----|-----|-----|-----|-----|-----|
-----|-----|-----|-----|-----|-----|-----|-----|-----|-----|
-----|-----|-----|-----|-----|-----|-----|-----|-----|-----|
-----|-----|-----|-----|-----|-----|-----|-----|-----|-----|
-----|-----|-----|-----|-----|-----|-----|-----|-----|-----|


  PM PM PM PM PM PM PM PM    PM PM PM PM PM PM PM PM  
  E  E  E  E  E  E  E  E     E  E  E  E  E  E  E  E   
--------------------------|--------------------------|
--------------------------|--------------------------|
--------------------------|--------------------------|
--------------------------|--------------------------|
--0--0--0--0--0--0--0--0--|--0--0--0--0--0--0--0--0--|
--------------------------|--------------------------|


  PM PM PM PM PM PM PM PM    PM PM PM PM PM PM PM PM  
  E  E  E  E  E  E  E  E     E  E  E  E  E  E  E  E   
--------------------------|--------------------------|
--------------------------|--------------------------|
--------------------------|--------------------------|
--------------------------|--------------------------|
--0--0--0--0--0--0--0--0--|--0--0--0--0--0--0--0--0--|
--------------------------|--------------------------|


  PM PM PM PM PM PM PM PM    PM PM PM PM PM PM PM PM  
  E  E  E  E  E  E  E  E     E  E  E  E  E  E  E  E   
--------------------------|--------------------------|
--------------------------|--------------------------|
--------------------------|--------------------------|
--------------------------|--------------------------|
--0--0--0--0--0--0--0--0--|--0--0--0--0--0--0--0--0--|
--------------------------|--------------------------|


  PM PM PM PM PM PM PM PM    PM PM PM PM PM PM PM PM  
  E  E  E  E  E  E  E  E     E  E  E  E  E  E  E  E   
--------------------------|--------------------------|
--------------------------|--------------------------|
--------------------------|--------------------------|
--------------------------|--------------------------|
--0--0--0--0--0--0--0--0--|--0--0--0--0--0--0--0--0--|
--------------------------|--------------------------|


  PM PM PM PM PM PM PM PM    PM PM PM PM PM PM PM PM  
  E  E  E  E  E  E  E  E     E  E  E  E  E  E  E  E   
--------------------------|--------------------------|
--------------------------|--------------------------|
--------------------------|--------------------------|
--------------------------|--------------------------|
--0--0--0--0--0--0--0--0--|--0--0--0--0--0--0--0--0--|
--------------------------|--------------------------|


  PM PM PM PM PM PM PM PM    PM PM PM PM PM PM PM PM  
  E  E  E  E  E  E  E  E     E  E  E  E  E  E  E  E   
--------------------------|--------------------------|
--------------------------|--------------------------|
--------------------------|--------------------------|
--------------------------|--------------------------|
--0--0--0--0--0--0--0--0--|--0--0--0--0--0--0--0--0--|
--------------------------|--------------------------|


  PM PM PM PM PM PM PM PM    PM PM PM PM PM PM PM PM  
  E  E  E  E  E  E  E  E     E  E  E  E  E  E  E  E   
--------------------------|--------------------------|
--------------------------|--------------------------|
--------------------------|--------------------------|
--------------------------|--------------------------|
--0--0--0--0--0--0--0--0--|--0--0--0--0--0--0--0--0--|
--------------------------|--------------------------|


  PM PM PM PM PM PM PM PM    PM PM PM PM PM           
  E  E  E  E  E  E  E  E     E  E  E  E  E  E  E  E   
--------------------------|--------------------------|
--------------------------|--------------------------|
--------------------------|--------------------------|
--------------------------|--------------------------|
--0--0--0--0--0--0--0--0--|--0--0--0--0--0-----------|
--------------------------|-----------------0--0--0--|


   Q    E   Q     Q     E      Q    E   Q     E  E   E    
---------------------------|-----------------------------|
--15-------14-----L\-------|--15-------14----14----------|
--14-------14-----L\-------|--14-------14----14-----14~--|
--16-------14-----L\-------|--16-------14----14-----14~--|
---------------------------|-----------------------------|
---------------------------|-----------------------------|


   Q     Q    H           Q    E  Q    E  E  E      Q    E   Q     Q     E   
-----------------------|------------------------|---------------------------|
-----------------------|--8-------8----8--8-----|--15-------14-----L\-------|
---L\------------------|--7-------7----7--7-----|--14-------14-----L\-------|
---L\------------------|--5-------5----5--5-----|--16-------14-----L\-------|
-----------------------|------------------------|---------------------------|
-----------------------|------------------------|---------------------------|


   Q    E   Q     E  E   E       Q     Q    H           W                 
-----------------------------|-----------------------|-------------------|
--15-------14----14----------|-----------------------|-------------------|
--14-------14----14-----14~--|---L\------------------|-------------------|
--16-------14----14-----14~--|---L\------------------|--0----------------|
-----------------------------|-----------------------|-------------------|
-----------------------------|-----------------------|-------------------|


   E   E   E   E   E   E   E   E      Q    E   Q     Q     E   
----------10----------10----------|---------------------------|
------10----------10------10------|--15-------14-----L\-------|
--12----------12--------------12--|--14-------14-----L\-------|
--12----------12------------------|--16-------14-----L\-------|
----------------------------------|---------------------------|
----------------------------------|---------------------------|


   Q    E   Q     E  E   E       Q     Q    H           Q    E  Q    E  E  E   
-----------------------------|-----------------------|------------------------|
--15-------14----14----------|-----------------------|--8-------8----8--8-----|
--14-------14----14-----14~--|---L\------------------|--7-------7----7--7-----|
--16-------14----14-----14~--|---L\------------------|--5-------5----5--5-----|
-----------------------------|-----------------------|------------------------|
-----------------------------|-----------------------|------------------------|


   Q    E   Q     Q     E      Q    E   Q     E  E   E    
---------------------------|-----------------------------|
--15-------14-----L\-------|--15-------14----14----------|
--14-------14-----L\-------|--14-------14----14-----14~--|
--16-------14-----L\-------|--16-------14----14-----14~--|
---------------------------|-----------------------------|
---------------------------|-----------------------------|


   Q     Q    H           W                    Q    E   Q     Q     E   
-----------------------|-------------------|---------------------------|
-----------------------|-------------------|--15-------14-----L\-------|
---L\------------------|-------------------|--14-------14-----L\-------|
---L\------------------|--0----------------|--16-------14-----L\-------|
-----------------------|-------------------|---------------------------|
-----------------------|-------------------|---------------------------|


   Q    E   Q     E  E   E       Q     Q    H           Q    E  Q    E  E  E   
-----------------------------|-----------------------|------------------------|
--15-------14----14----------|-----------------------|--8-------8----8--8-----|
--14-------14----14-----14~--|---L\------------------|--7-------7----7--7-----|
--16-------14----14-----14~--|---L\------------------|--5-------5----5--5-----|
-----------------------------|-----------------------|------------------------|
-----------------------------|-----------------------|------------------------|


   Q    E   Q     Q     E      Q    E   Q     E  E   E    
---------------------------|-----------------------------|
--15-------14-----L\-------|--15-------14----14----------|
--14-------14-----L\-------|--14-------14----14-----14~--|
--16-------14-----L\-------|--16-------14----14-----14~--|
---------------------------|-----------------------------|
---------------------------|-----------------------------|


   Q     Q    H           W                    E   E   E   E   E   E   E   E   
-----------------------|-------------------|----------10----------10----------|
-----------------------|-------------------|------10----------10------10------|
---L\------------------|-------------------|--12----------12--------------12--|
---L\------------------|--0----------------|--12----------12------------------|
-----------------------|-------------------|----------------------------------|
-----------------------|-------------------|----------------------------------|


   Q    E   Q     Q     E      Q    E   Q     E  E   E    
---------------------------|-----------------------------|
--15-------14-----L\-------|--15-------14----14----------|
--14-------14-----L\-------|--14-------14----14-----14~--|
--16-------14-----L\-------|--16-------14----14-----14~--|
---------------------------|-----------------------------|
---------------------------|-----------------------------|


   Q     Q    H           Q    E  Q    E  E  E      Q    E   Q     Q     E   
-----------------------|------------------------|---------------------------|
-----------------------|--8-------8----8--8-----|--15-------14-----L\-------|
---L\------------------|--7-------7----7--7-----|--14-------14-----L\-------|
---L\------------------|--5-------5----5--5-----|--16-------14-----L\-------|
-----------------------|------------------------|---------------------------|
-----------------------|------------------------|---------------------------|


   Q    E   Q     E  E   E       Q     Q    H          
-----------------------------|-----------------------||
--15-------14----14----------|-----------------------||
--14-------14----14-----14~--|---L\------------------||
--16-------14----14-----14~--|---L\------------------||
-----------------------------|-----------------------||
-----------------------------|-----------------------||




Duration Legend
---------------
W - whole
H - half
Q - quarter
E - 8th
S - 16th
T - 32nd
X - 64th
. - note dotted
|-n-|  - n-tuplets


Tablature Legend
----------------
L - tied note
x - dead note
g - grace note
(n) - ghost note
> - accentuded note
NH - natural harmonic
AH - artificial harmonic
TH - tapped harmonic
SH - semi harmonic
PH - pitch harmonic
h - hammer on
p - pull off
b - bend
br - bendRelease
pb - preBend
pbr - preBendRelease
brb - bendReleaseBend
\n/ - tremolo bar dip
\n - tremolo bar dive
-/n - tremolo bar Release up
/n\ - tremolo bar inverted dip
/n - tremolo bar return
-\n - tremolo bar Release down
S - shift slide
s - legato slide
/ -  slide into from below or out of upwards
\ -  slide into from above or out of downwards
~ - vibrato
W - wide vibrato
tr - trill
TP - tremolo picking
T - tapping
S - slap
P - pop
< - fade in
^ - brush up
v - brush down
comments
We did not receive enough feedback on this tab! Please rate:
print report bad tab
1 2 3 4 5
I want to post or [tab]
guest
You may want to rate the tab now too:
select rating
Please do not post tabs as comments. Select "correction" instead!