Oops, an error
Loading. Please wait.

Bonggahan Bass Tab

2,716 views 4 this week
no commentswrite comment
1 2 3 4 5
please rate
Autoscroll
+/-
esc
set tempo
stop
WARNING: You are trying to view
                                    content from Ultimate-Guitar.com
                                    in an unauthorized application,
                                    which is prohibited.

                                    Please use an official Ultimate
                                    Guitar Tabs application for iPhone,
                                    iPad or Android to access legitimate
                                    chords, guitar, bass, and drum tabs
                                    from Ultimate-Guitar.com database.

                                    Type "ultimate guitar tabs" in Apple
                                    App Store's or Android Market's
                                    search to find the application.
Bonggahan
Sampaguita

Intro: 

   G - pause
G|-----------------------12\-|
D|-----------2-3-4h5---------|
A|----2-3-4-5----------------|
E|-3h5-----------------------|
			  Pluck\slide	

   C -                G -               G -              C -
G|---5---55---5---55---------------------------------------5---55--5-3-2---|
D|---------------------5---55--5---55----5---55--5---55------------------5-|
A|-33-333---33-333---------------------------------------33-333---3-1-0----|
E|-------------------33-333--33-333----33-333--33-333-------------------3--|
						SPSPSPSP	Slap-Pluck

    C -               F -               C -      G -      C.F.C pause
G|---5---55---5---55---------------------5---55-----------------|
D|---------------------3---33--3---33-------------5---55----33--|
A|-33-333---33-333---------------------33-333-------------33--3-|
E|-------------------11-111--11-111-------------33-333----------|

Verse 1:
                  C				G	
Panahon na . . .			. . .problema Pa-dance dance . . . hanggang umaga
		G|------------| 	G|-----------------------------5-|
		D|--2--2-2--2-| 	D|--------------------------3h5--|
		A|-3-33-3-33--| 	A|--2--2-2--2-2--2-2--2-33-5-----|
		E|------------| 	E|-3-33-3-33-3-33-3-33-----------|

                   C           		F
Wa ko type . . .			. . . todo bigay
		G|--------55-3-2--| 	G|---2-55-3-2-2-55-3-2--------|
		D|--2--2-2--------| 	D|--3--------3----------------|
		A|-3-33-3---------| 	A|-(-0--------0-<alternative)-|
		E|----------------| 	E|-(1--------1-<alternative-)-|


      		    C		      G                 C
Kaya join na lang kayo		Let's all have a good time.
		G|---------| 	G|-------------------|
		D|--2-33-2-| 	D|-------------3-3---|
		A|-3-------| 	A|--2-33-2-3-3-----3-|
		E|---------| 	E|-3-----------------|

Ad lib: (Same as 2nd part of Intro)

   C -                G -               G -              C -
G|---5---55---5---55---------------------------------------5---55--5-3-2---|
D|---------------------5---55--5---55----5---55--5---55------------------5-|
A|-33-333---33-333---------------------------------------33-333---3-1-0----|
E|-------------------33-333--33-333----33-333--33-333-------------------3--|
						SPSPSPSP slap-pluck)

 
    C -               F -               C -      G -      C.F.C pause
G|---5---55---5---55---------------------5---55-----------------|
D|---------------------3---33--3---33-------------5---55----33--|
A|-33-333---33-333---------------------33-333-------------33--3-|
E|-------------------11-111--11-111-------------33-333----------|

Refrain:
                  G
Di ko say na magwala ka
		G|-------------------|
		D|--5---3h5-5--2-3-5-|
		A|---3h5------5------|
		E|-3-----------------|

	                   C
Ang say ko lang ay magpabongga ka
		G|--5-3-3-5-5--------|
		D|---5-5-----5-2-3-5-|
		A|-3-----------------|
		E|-------------------|

                   A7                    		D7-pause 	G-pause
Stop ka na sa pagdurusa	   Ride ka lang sa problema.
		G|------------------77-|				G|------------|
		D|-77----77------------|				D|--------4h5-|
		A|-----7--------4-5----|				A|-2h3-5-7----|
		E|---55-----55-7-------|				E|------------|


Verse 2: (Repeat Verse 1 Bass Pattern)
                    C                         G
Di ko trip ang magpasabog Hate na hate ko ang matulog
                    G                 C pause
Trip ko lang na umiksena Heto ay sobrang pilya
                       C                F
Wag ka say na lang, kumadre Bow ka lang ng bow
    C 			G               C-F-C pause
Pa-sing sing ka lang Para ikaw ay sumaya.


Repeat Ad lib, Refrain & 1st verse (Repeat bass patterns)


Outro:

      C 		   G                      C pause
Kaya join na lang kayo  Let's all have a good time
	G|---------| 	G|-------------------|
	D|--2-33-2-| 	D|-------------3-3---|
	A|-3-------| 	A|--2-33-2-3-3-----3-|
	E|---------| 	E|-3-----------------|

      C		     G                          C-F-C, C#7, C
Kaya join na lang kayo Let's all have a good time.
G|----------------------------------------------------------5/7-5-------------------| 
D|---22-33-55---55--55---------------------------22-33-44-5---------------------10\-|
A|-33------------------------------------------33-----------3/5-3--33333 . . . . ---| 
E|------------33--33----------------------------------------------------------------|
comments
We did not receive enough feedback on this tab! Please rate:
print report bad tab
1 2 3 4 5
I want to post or [tab]
guest
You may want to rate the tab now too:
select rating
Please do not post tabs as comments. Select "correction" instead!