Oops, an error
Loading. Please wait.

Beneath The Machine Tab

ver1
ver1

Whole song

Interactive

More versions @911Tabs.com
2,539 views 1 this week
1 commentread comment
1 2 3 4 5
accurate
x 5
Autoscroll
+/-
esc
set tempo
stop
Contributor
Difficulty
intermediate
Hey! There's an official Ultimate Guitar app which is ideal
for learning songs when you're away from computer. Get the app
WARNING: You are trying to view
                                    content from Ultimate-Guitar.com
                                    in an unauthorized application,
                                    which is prohibited.

                                    Please use an official Ultimate
                                    Guitar Tabs application for iPhone,
                                    iPad or Android to access legitimate
                                    chords, guitar, bass, and drum tabs
                                    from Ultimate-Guitar.com database.

                                    Type "ultimate guitar tabs" in Apple
                                    App Store's or Android Market's
                                    search to find the application.
-------------------------------------------------------------------------------
                              Sanctity - Beneath The Machine
-------------------------------------------------------------------------------
Tabbed by:thompsonthymoss
Email:tom.thy.moss@hotmail.com

this is my first tab so theres probably some bits wrong but it all sounds good to me

Tuning: standard

Intro
e|---------------------------------------------------------------------------|
B|---------------------------------------------------------------------------|
G|-------------------------5-5-----------------------------------------------|
D|-7-7-7-6-6-6-3-3-3-2-2-2-5-5-5-5-5-5-5-5-6-6-6-7-9-------------------------|
A|-7-7-7-6-6-6-3-3-3-2-2-2-3-3-3-3-3-3-3-3-----------------------------------|
E|-5-5-5-4-4-4-1-1-1-0-0-0---------------------------------------------------|
                               * * * * * *
e|---------------------------------------------------------------------------|
B|-----------------------------------------------9-8-------------------------|
G|-------------------------5-5-----------------------------------------------|
D|-------6-6-6-3-3-3-2-2-2-5-5-5-5-5-5-5-5-6-6-6-----------------------------|
A|-------6-6-6-3-3-3-2-2-2-3-3-3-3-3-3-3-3-----------------------------------|
E|-5-8-8-4-4-4-1-1-1-0-0-0---------------------------------------------------|
                               * * * * * *

e|---------------------------------------------------------------------------|
B|---------------------------------------------------------------------------|
G|-------------------------5-5-----------------------------------------------|
D|-------------------------5-5-5-5-5-5-5-5-6-6-6-7-9-------------------------|
A|---------6-----3-----2-0-3-3-3-3-3-3-3-3-----------------------------------|
E|-5-8-5-4---0-1---0-0-------------------------------------------------------|
                               * * * * * *
e|---------------------------------------------------------------------------|
B|-----------------------------------------------9-8-------------------------|
G|-------------------------5-5-----------------------------------------------|
D|-------------------------5-5-5-5-5-5-5-5-6-6-6-----------------------------|
A|---------6-----3-----2-0-3-3-3-3-3-3-3-3-----------------------------------|
E|-5-8-5-4---0-1---0-0-------------------------------------------------------|
                               * * * * * *
Verse 1
e|---------------------------------------------------------------------------|
B|---------------------------------------------------------------------------|
G|-----4---3-----------3-----4-----------------------------------------------|
D|-2-2-4-2-3-2-2-5-2-2-3-2-2-4-2-2-3-2-2-2-2-2-2-2-2-2-2-2-2-2-2-2-----------|
A|-2-2-2-2-1-2-2-5-2-2-1-2-2-2-2-2-3-2-2-2-2-2-2-2-2-2-2-2-2-2-2-2-----------|
E|-0-0---0---0-0-3-0-0---0-0---0-0-1-0-0-0-0-0-0-0-0-0-0-0-0-0-0-0-----------|
   * *   *   * *   * *   * *   * *   * * * * * * * * * * * * * * *
e|---------------------------------------------------------------------------|
B|---------------------------------------------------------------------------|
G|-----4---3-----------3-----4-----------------------------------------------|
D|-2-2-4-2-3-2-2-5-2-2-3-2-2-4-2-2-3-2-2-2-2-2-2-2-2-2-2-2-2-2-2-2-----------|
A|-2-2-2-2-1-2-2-5-2-2-1-2-2-2-2-2-3-2-2-2-2-2-2-2-2-2-2-2-2-2-2-2-----------|
E|-0-0---0---0-0-3-0-0---0-0---0-0-1-0-0-0-0-0-0-0-0-0-0-0-0-0-0-0-----------|
   * *   *   * *   * *   * *   * *   * * * * * * * * * * * * * * *

e|---------------------------------------------------------------------------|
B|---------------------------------------------------------------------------|
G|-----4---3-----------3-----4-----------------------------------------------|
D|-2-2-4-2-3-2-2-5-2-2-3-2-2-4-2-2-3-2-2-2-2-2-2-2-2-2-2-2-2-2-2-2-----------|
A|-2-2-2-2-1-2-2-5-2-2-1-2-2-2-2-2-3-2-2-2-2-2-2-2-2-2-2-2-2-2-2-2-----------|
E|-0-0---0---0-0-3-0-0---0-0---0-0-1-0-0-0-0-0-0-0-0-0-0-0-0-0-0-0-----------|
   * *   *   * *   * *   * *   * *   * * * * * * * * * * * * * * *

e|---------------------------------------------------------------------------|
B|---------------------------------------------------------------------------|
G|-----4---3-----------3-----4-----------------------------------------------|
D|-2-2-4-2-3-2-2-5-2-2-3-2-2-4-2-2-3-2-2-2-2-2-2-2-2-2-2-2-2-2-2-2-----------|
A|-2-2-2-2-1-2-2-5-2-2-1-2-2-2-2-2-3-2-2-2-2-2-2-2-2-2-2-2-2-2-2-2-----------|
E|-0-0---0---0-0-3-0-0---0-0---0-0-1-0-0-0-0-0-0-0-0-0-0-0-0-0-0-0-----------|
   * *   *   * *   * *   * *   * *   * * * * * * * * * * * * * * *
 
Chorus
e|---------------------------------------------------------------------------|
B|---------------------------------------------------------------------------|
G|-5-5-5-5-5-7-7-7-7-7-7-7---------------------------------5-5-5-5-5-4-------|
D|-5-5-5-5-5-7-7-7-7-7-7-7---9-----------------------12-11-5-5-5-5-5-4-------|
A|-3-3-3-3-3-5-5-5-5-5-5-5-7---7-10-2-2-2-2-2-7-9-10-------3-3-3-3-3-2-------|
E|----------------------------------0-0-0-0-0--------------------------------|
                                    * * * * *
e|---------------------------------------------------------------------------|
B|---------------------------------------------------------------------------|
G|---------------------------------------------------------------------------|
D|-9-7-9-2-2-2-2-2-2-2-2-----------5-4---------------------------------------|
A|-7-5-7-2-2-2-2-2-2-2-2---------2-----5-------------------------------------|
E|-------0-0-0-0-0-0-0-0-0-2-3-5---------------------------------------------|
         * * * * * * * * 
e|---------------------------------------------------------------------------|
B|---------------------------------------------------------------------------|
G|-5-5-5-5-5-7-7-7-7-7-7-7---------------------------------5-5-5-5-5-4-------|
D|-5-5-5-5-5-7-7-7-7-7-7-7---9-----------------------12-11-5-5-5-5-5-4-------|
A|-3-3-3-3-3-5-5-5-5-5-5-5-7---7-10-2-2-2-2-2-7-9-10-------3-3-3-3-3-2-------|
E|----------------------------------0-0-0-0-0--------------------------------|
                                    * * * * *
e|---------------------------------------------------------------------------|
B|---------------------------------------------------------------------------|
G|---------------------------------------------------------------------------|
D|-9-7-9-2-2-2-2-2-2-2-2-----------5-4---------------------------------------|
A|-7-5-7-2-2-2-2-2-2-2-2---------2-----5-------------------------------------|
E|-------0-0-0-0-0-0-0-0-0-2-3-5---------------------------------------------|
         * * * * * * * * 

 Verse 2
e|---------------------------------------------------------------------------|
B|---------------------------------------------------------------------------|
G|-----4---3-----------3-----4-----------------------------------------------|
D|-2-2-4-2-3-2-2-5-2-2-3-2-2-4-2-2-3-2-2-2-2-2-2-2-2-2-2-2-2-2-2-2-----------|
A|-2-2-2-2-1-2-2-5-2-2-1-2-2-2-2-2-3-2-2-2-2-2-2-2-2-2-2-2-2-2-2-2-----------|
E|-0-0---0---0-0-3-0-0---0-0---0-0-1-0-0-0-0-0-0-0-0-0-0-0-0-0-0-0-----------|
   * *   *   * *   * *   * *   * *   * * * * * * * * * * * * * * *
e|---------------------------------------------------------------------------|
B|---------------------------------------------------------------------------|
G|-----4---3-----------3-----4-----------------------------------------------|
D|-2-2-4-2-3-2-2-5-2-2-3-2-2-4-2-2-3-2-2-2-2-2-2-2-2-2-2-2-2-2-2-2-----------|
A|-2-2-2-2-1-2-2-5-2-2-1-2-2-2-2-2-3-2-2-2-2-2-2-2-2-2-2-2-2-2-2-2-----------|
E|-0-0---0---0-0-3-0-0---0-0---0-0-1-0-0-0-0-0-0-0-0-0-0-0-0-0-0-0-----------|
   * *   *   * *   * *   * *   * *   * * * * * * * * * * * * * * *

e|---------------------------------------------------------------------------|
B|---------------------------------------------------------------------------|
G|-----4---3-----------3-----4-----------------------------------------------|
D|-2-2-4-2-3-2-2-5-2-2-3-2-2-4-2-2-3-2-2-2-2-2-2-2-2-2-2-2-2-2-2-2-----------|
A|-2-2-2-2-1-2-2-5-2-2-1-2-2-2-2-2-3-2-2-2-2-2-2-2-2-2-2-2-2-2-2-2-----------|
E|-0-0---0---0-0-3-0-0---0-0---0-0-1-0-0-0-0-0-0-0-0-0-0-0-0-0-0-0-----------|
   * *   *   * *   * *   * *   * *   * * * * * * * * * * * * * * *

e|---------------------------------------------------------------------------|
B|---------------------------------------------------------------------------|
G|-----4---3-----------3-----4-----------------------------------------------|
D|-2-2-4-2-3-2-2-5-2-2-3-2-2-4-2-2-3-2-2-2-2-2-2-2-2-2-2-2-2-2-2-2-----------|
A|-2-2-2-2-1-2-2-5-2-2-1-2-2-2-2-2-3-2-2-2-2-2-2-2-2-2-2-2-2-2-2-2-----------|
E|-0-0---0---0-0-3-0-0---0-0---0-0-1-0-0-0-0-0-0-0-0-0-0-0-0-0-0-0-----------|
   * *   *   * *   * *   * *   * *   * * * * * * * * * * * * * * *

Chorus 2
e|---------------------------------------------------------------------------|
B|---------------------------------------------------------------------------|
G|-5-5-5-5-5-7-7-7-7-7-7-7---------------------------------5-5-5-5-5-4-------|
D|-5-5-5-5-5-7-7-7-7-7-7-7---9-----------------------12-11-5-5-5-5-5-4-------|
A|-3-3-3-3-3-5-5-5-5-5-5-5-7---7-10-2-2-2-2-2-7-9-10-------3-3-3-3-3-2-------|
E|----------------------------------0-0-0-0-0--------------------------------|
                                    * * * * *
e|---------------------------------------------------------------------------|
B|---------------------------------------------------------------------------|
G|---------------------------------------------------------------------------|
D|-9-7-9-2-2-2-2-2-2-2-2-----------5-4---------------------------------------|
A|-7-5-7-2-2-2-2-2-2-2-2---------2-----5-------------------------------------|
E|-------0-0-0-0-0-0-0-0-0-2-3-5---------------------------------------------|
         * * * * * * * * 
e|---------------------------------------------------------------------------|
B|---------------------------------------------------------------------------|
G|-5-5-5-5-5-7-7-7-7-7-7-7---------------------------------5-5-5-5-5-4-------|
D|-5-5-5-5-5-7-7-7-7-7-7-7---9-----------------------12-11-5-5-5-5-5-4-------|
A|-3-3-3-3-3-5-5-5-5-5-5-5-7---7-10-2-2-2-2-2-7-9-10-------3-3-3-3-3-2-------|
E|----------------------------------0-0-0-0-0--------------------------------|
                                    * * * * *
e|---------------------------------------------------------------------------|
B|---------------------------------------------------------------------------|
G|---------------------------------------------------------------------------|
D|-9-7-9-2-2-2-2-2-2-2-2-----------5-4---------------------------------------|
A|-7-5-7-2-2-2-2-2-2-2-2---------2-----5-------------------------------------|
E|-------0-0-0-0-0-0-0-0-0-2-3-5---------------------------------------------|
         * * * * * * * * 

Bridge
e|---------------------------------------------------------------------------|
B|---------------------------------------------------------------------------|
G|---------------------------------5-------5---------------------------------|
D|-2-------2-----------------5-4---5-5-5-5-5-5-5-5-5-5---------4-4-----------|
A|-2-2-2-2-2-2-2-2---------2-----5-3-3-3-3-3-3-3-3-----3-3-6-6---------------|
E|-0-0-0-0-0-0-0-0-0-2-3-5---------------------------------------------------|
   * * * * * * * *                 * * * * * * * *
e|---------------------------------------------------------------------------|
B|---------------------------------------------------------9-8---------------|
G|---------------------------------5-------5---------------------------------|
D|-2-------2-----------------5-4---5-5-5-5-5-5-5-5-5-5-----------------------|
A|-2-2-2-2-2-2-2-2---------2-----5-3-3-3-3-3-3-3-3-----3-3-------------------|
E|-0-0-0-0-0-0-0-0-0-2-3-5---------------------------------------------------|
   * * * * * * * *                 * * * * * * * *
e|---------------------------------------------------------------------------|
B|---------------------------------------------------------------------------|
G|---------------------------------5-------5---------------------------------|
D|-2-------2-----------------5-4---5-5-5-5-5-5-5-5-5-5---------4-4-----------|
A|-2-2-2-2-2-2-2-2---------2-----5-3-3-3-3-3-3-3-3-----3-3-6-6---------------|
E|-0-0-0-0-0-0-0-0-0-2-3-5---------------------------------------------------|
   * * * * * * * *                 * * * * * * * *
e|---------------------------------------------------------------------------|
B|---------------------------------------------------------9-8---------------|
G|---------------------------------5-------5---------------------------------|
D|-2-------2-----------------5-4---5-5-5-5-5-5-5-5-5-5-----------------------|
A|-2-2-2-2-2-2-2-2---------2-----5-3-3-3-3-3-3-3-3-----3-3-------------------|
E|-0-0-0-0-0-0-0-0-0-2-3-5---------------------------------------------------|
   * * * * * * * *                 * * * * * * * *

Solo (havent worked it out yet sorry)

Chorus 3
e|---------------------------------------------------------------------------|
B|---------------------------------------------------------------------------|
G|-5-5-5-5-5-7-7-7-7-7-7-7---------------------------------5-5-5-5-5-4-------|
D|-5-5-5-5-5-7-7-7-7-7-7-7---9-----------------------12-11-5-5-5-5-5-4-------|
A|-3-3-3-3-3-5-5-5-5-5-5-5-7---7-10-2-2-2-2-2-7-9-10-------3-3-3-3-3-2-------|
E|----------------------------------0-0-0-0-0--------------------------------|
                                    * * * * *
e|---------------------------------------------------------------------------|
B|---------------------------------------------------------------------------|
G|---------------------------------------------------------------------------|
D|-9-7-9-2-2-2-2-2-2-2-2-----------5-4---------------------------------------|
A|-7-5-7-2-2-2-2-2-2-2-2---------2-----5-------------------------------------|
E|-------0-0-0-0-0-0-0-0-0-2-3-5---------------------------------------------|
         * * * * * * * * 
e|---------------------------------------------------------------------------|
B|---------------------------------------------------------------------------|
G|-5-5-5-5-5-7-7-7-7-7-7-7---------------------------------5-5-5-5-5-4-------|
D|-5-5-5-5-5-7-7-7-7-7-7-7---9-----------------------12-11-5-5-5-5-5-4-------|
A|-3-3-3-3-3-5-5-5-5-5-5-5-7---7-10-2-2-2-2-2-7-9-10-------3-3-3-3-3-2-------|
E|----------------------------------0-0-0-0-0--------------------------------|
                                    * * * * *
e|---------------------------------------------------------------------------|
B|---------------------------------------------------------------------------|
G|---------------------------------------------------------------------------|
D|-9-7-9-2-2-2-2-2-2-2-2-----------5-4---------------------------------------|
A|-7-5-7-2-2-2-2-2-2-2-2---------2-----5-------------------------------------|
E|-------0-0-0-0-0-0-0-0-0-2-3-5---------------------------------------------|
         * * * * * * * * 

Outro

e|---------------------------------------------------------------------------|
B|---------------------------------------------------------------------------|
G|---------------------------------------------------------------------------|
D|---------------------------------------------------------------------------|
A|---------------------------------------------------------------------------|
E|-0-0---0-0---0-0---0-0---0-0-0-0---0-0---0-0---0-0---0-0---0-0-0-0---------|

e|---------------------------------------------------------------------------|
B|---------------------------------------------------------------------------|
G|---------------------------------------------------------------------------|
D|---------------------------------------------------------------------------|
A|---------------------------------------------------------------------------|
E|-0-0---0-0---0-0---0-0---0-0-0-0---3-3---3-3----6-6---6-6--2-2-2-2---------|

e|---------------------------------------------------------------------------|
B|---------------------------------------------------------------------------|
G|---------------------------------------------------------------------------|
D|---------------------------------------------------------------------------|
A|---------------------------------------------------------------------------|
E|-0-0---0-0---0-0---0-0---0-0-0-0---0-0---0-0---0-0---0-0---0-0-0-0---------|

e|---------------------------------------------------------------------------|
B|---------------------------------------------------------------------------|
G|---------------------------------------------------------------------------|
D|---------------------------------------------------------------------------|
A|---------------------------------------------------------------------------|
E|-0-0---0-0---0-0---0-0---0-0-0-0---3-3---3-3----6-6---6-6--2-2-2-2---------|


e|-------------------------------------------------------------------------------------------|
B|-------------------------------------------------------------------------------------------|
G|----------------------------------------------------------------------------------9-7-9----|
D|----------------------------------------------------------------------------------9-7-9----|
A|----------------------------------------------------------------------------------7-5-7----|
E|-0-0-0---0-0-0---0-0-0----0-0-0---0-0-0---0-0-0---3-3---3-3---6-6---6-6---2-2-2-2----------|


sorry there aint no solo but if theres any suggestions email me

enjoy!!
comments
print report bad tab
1 comment total.
0 reply
rockonmetallica wrote on June 23 2008, 05:12 pm

everything is 2 frets too high unless u tune down to D standard

I want to post or [tab]
guest
You may want to rate the tab now too:
select rating
Please do not post tabs as comments. Select "correction" instead!