Oops, an error
Loading. Please wait.

Bury Your Head Tab

ver2
ver2

Whole song

More versions @911Tabs.com
4,640 views 3 this week
5 commentsread comments
1 2 3 4 5
accurate
x 7
Autoscroll
+/-
esc
set tempo
stop
WARNING: You are trying to view
                                    content from Ultimate-Guitar.com
                                    in an unauthorized application,
                                    which is prohibited.

                                    Please use an official Ultimate
                                    Guitar Tabs application for iPhone,
                                    iPad or Android to access legitimate
                                    chords, guitar, bass, and drum tabs
                                    from Ultimate-Guitar.com database.

                                    Type "ultimate guitar tabs" in Apple
                                    App Store's or Android Market's
                                    search to find the application.
  BURY YOUR HEAD
                              As recorded by Saosin

Words and Music by Saosin
Arranged by Saosin
Transcribed by Cordarro Collins

Gtr I (C G C F A D) - 'Untitled'
Gtr II (C G C F A D) - 'Untitled'
Gtr III (C G C F A D) - 'Untitled'
Gtr IV (C G C F A D) - 'Untitled'

 Intro
  Q=182
  N.C.
 6/4
  Gtr I
    <
    T            T            T            T            T            T            T            T
    S   S   S    S   S   S    S   S   S    S   S   S    S   S   S    S   S   S    S   S   S    S   S   S
|---------------------------------------------------------------------------------------------------------|
|---------------------------------------------------------------------------------------------------------|
|-(20)p(1)h(4)-(20)p(1)h(4)-(20)p(1)h(4)-(20)p(1)h(4)-(20)p(1)h(4)-(20)p(1)h(4)-(20)p(1)h(4)-(20)p(1)h(4)-|
|---------------------------------------------------------------------------------------------------------|
|---------------------------------------------------------------------------------------------------------|
|---------------------------------------------------------------------------------------------------------|
|
| Gtr II
|   <
|   Q                Q                Q                 Q                H
|---6----------------7----------------6-----------------7----------------6--------------------------------|
|---------------------------------------------------------------------------------------------------------|
|---------------------------------------------------------------------------------------------------------|
|---------------------------------------------------------------------------------------------------------|
|---------------------------------------------------------------------------------------------------------|
|---------------------------------------------------------------------------------------------------------|


  G#5               (F#5)
 4/4
  Q  E E Q  E E   E   E  E  E  E  E  E  E
|---------------|-------------------------|
|---------------|-------------------------|
|---------------|---/11-11-11-11-11-11-11-|
|-6--6-6-6--6-6-|-x--/x--x--x--x--x--x--x-|
|-6--6-6-6--6-6-|-x--/9--9--9--9--9--9--9-|
|-6--6-6-6--6-6-|-x-----------------------|
|
| Q  E E Q  E E   E   E  E  E  E  E  E  E
|---------------|-------------------------|
|---------------|-------------------------|
|---------------|---/11-11-11-11-11-11-11-|
|-6--6-6-6--6-6-|-x--/x--x--x--x--x--x--x-|
|-6--6-6-6--6-6-|-x--/9--9--9--9--9--9--9-|
|-6--6-6-6--6-6-|-x-----------------------|


  E5                (D#5)
  Q  E E Q  E E   E  E E E E E E E
|---------------|------------------|
|---------------|------------------|
|---------------|---/8-8-8-8-6-4-6-|
|-2--2-2-2--2-2-|-x-/x-x-x-x-x-x-x-|
|-2--2-2-2--2-2-|-x-/6-6-6-6-4-2-4-|
|-2--2-2-2--2-2-|-x----------------|
|
| Q  E E Q  E E   E  E E E E E E E
|---------------|------------------|
|---------------|------------------|
|---------------|---/8-8-8-8-6-4-6-|
|-2--2-2-2--2-2-|-x-/x-x-x-x-x-x-x-|
|-2--2-2-2--2-2-|-x-/6-6-6-6-4-2-4-|
|-2--2-2-2--2-2-|-x----------------|


  G#5               (F#5)
  Q  E E Q  E E   E   E  E  E  E  E  E  E
|---------------|-------------------------|
|---------------|-------------------------|
|---------------|---/11-11-11-11-11-11-11-|
|-6--6-6-6--6-6-|-x--/x--x--x--x--x--x--x-|
|-6--6-6-6--6-6-|-x--/9--9--9--9--9--9--9-|
|-6--6-6-6--6-6-|-x-----------------------|
|
| Q  E E Q  E E   E   E  E  E  E  E  E  E
|---------------|-------------------------|
|---------------|-------------------------|
|---------------|---/11-11-11-11-11-11-11-|
|-6--6-6-6--6-6-|-x--/x--x--x--x--x--x--x-|
|-6--6-6-6--6-6-|-x--/9--9--9--9--9--9--9-|
|-6--6-6-6--6-6-|-x-----------------------|


  F#5             E5          (D#5)  (C#5)
                  PM--------|
  Q  E E Q  E E   E E S S S S  E E E E
|---------------|----------------------|
|---------------|----------------------|
|---------------|-------------/8-8-8-6-|
|-4--4-4-4--4-4-|-------------/x-x-x-x-|
|-4--4-4-4--4-4-|-2-2-2-2-2-2-/6-6-6-4-|
|-4--4-4-4--4-4-|-2-2-2-2-2-2----------|
|
|                 PM--------|
| Q  E E Q  E E   E E S S S S  E E E E
|---------------|----------------------|
|---------------|----------------------|
|---------------|-------------/8-8-8-6-|
|-4--4-4-4--4-4-|-------------/x-x-x-x-|
|-4--4-4-4--4-4-|-2-2-2-2-2-2-/6-6-6-4-|
|-4--4-4-4--4-4-|-2-2-2-2-2-2----------|


 Pre-Verse
  N.C.
  Gtr III
   E E  E E  E E  E E    E E  E E  E E  E E
|-----------11--------|-----------11--------|
|--7h9--7h9----9p=7h9-|--7h9--7h9----9p=7h9-|
|---------------------|---------------------|
|---------------------|---------------------|
|---------------------|---------------------|
|---------------------|---------------------|
|
|  E E  E E  E E  E E    E E  E E  E E  E E
|----7----7----7----7-|----7----7----7----7-|
|-11---11---11---11---|-11---11---11---11---|
|---------------------|---------------------|
|---------------------|---------------------|
|---------------------|---------------------|
|---------------------|---------------------|


   E E  E E  E E  E E    E E  E E  E E  E E
|-----------11--------|-----------11--------|
|--7h9--7h9----9p=7h9-|--7h9--7h9----9p=7h9-|
|---------------------|---------------------|
|---------------------|---------------------|
|---------------------|---------------------|
|---------------------|---------------------|
|
|  E E  E E  E E  E E    E E  E E  E E  E E
|----7----7----7----7-|----7----7----7----7-|
|-11---11---11---11---|-11---11---11---11---|
|---------------------|---------------------|
|---------------------|---------------------|
|---------------------|---------------------|
|---------------------|---------------------|


 Verse
  N.C.(G#sus2)
   Q    Q    Q    Q      Q    Q    Q    Q
|---------------------|---------------------|
|---------------------|---------------------|
|-------3---------3---|-------3---------3---|
|--6---------6--------|--6---------6--------|
|---------------------|---------------------|
|---------------------|---------------------|
|
|  E E  E E  E E  E E    E E  E E  E E  E E
|----7----7----7----7-|----7----7----7----7-|
|-11---11---11---11---|-11---11---11---11---|
|---------------------|---------------------|
|---------------------|---------------------|
|---------------------|---------------------|
|---------------------|---------------------|


  N.C.(G#m)
   Q     Q     Q     Q       Q     Q     Q     Q
|-------------------------|-------------------------|
|-------------------------|-------------------------|
|--------4-----------4----|--------4-----------4----|
|--6-----------6----------|--6-----------6----------|
|-------------------------|-------------------------|
|-------------------------|-------------------------|
|
|  E  E  E  E  E  E  E  E    E  E  E  E  E  E  E  E
|----14----14----14----14-|----14----14----14----14-|
|-11----11----11----11----|-11----11----11----11----|
|-------------------------|-------------------------|
|-------------------------|-------------------------|
|-------------------------|-------------------------|
|-------------------------|-------------------------|


  N.C.(G#sus2)
   Q    Q    Q    Q      Q    Q    Q    Q
|---------------------|---------------------|
|---------------------|---------------------|
|-------3---------3---|-------3---------3---|
|--6---------6--------|--6---------6--------|
|---------------------|---------------------|
|---------------------|---------------------|
|
|  E E  E E  E E  E E    E E  E E  E E  E E
|----7----7----7----7-|----7----7----7----7-|
|-11---11---11---11---|-11---11---11---11---|
|---------------------|---------------------|
|---------------------|---------------------|
|---------------------|---------------------|
|---------------------|---------------------|


  N.C.(G#m)
   Q    Q    Q    Q      Q     Q     Q     Q
|---------------------|-------------------------|
|---------------------|-------------------------|
|-------4---------4---|--------4-----------4----|
|--6---------6--------|--6-----------6----------|
|---------------------|-------------------------|
|---------------------|-------------------------|
|
|  E E  E E  E E  E E    E  E  E  E  E  E  E  E
|----9----9----9----9-|----11----11----11----11-|
|-11---11---11---11---|-11----11----11----11----|
|---------------------|-------------------------|
|---------------------|-------------------------|
|---------------------|-------------------------|
|---------------------|-------------------------|


  N.C.(G#sus2)
   Q    Q    Q    Q      Q    Q    Q    Q
|---------------------|---------------------|
|---------------------|---------------------|
|-------3---------3---|-------3---------3---|
|--6---------6--------|--6---------6--------|
|---------------------|---------------------|
|---------------------|---------------------|
|
|  E E  E E  E E  E E    E E  E E  E E  E E
|----7----7----7----7-|----7----7----7----7-|
|-11---11---11---11---|-11---11---11---11---|
|---------------------|---------------------|
|---------------------|---------------------|
|---------------------|---------------------|
|---------------------|---------------------|


  N.C.(G#m)
   Q     Q     Q     Q       Q     Q     Q     Q
|-------------------------|-------------------------|
|-------------------------|-------------------------|
|--------4-----------4----|--------4-----------4----|
|--6-----------6----------|--6-----------6----------|
|-------------------------|-------------------------|
|-------------------------|-------------------------|
|
|  E  E  E  E  E  E  E  E    E  E  E  E  E  E  E  E
|----14----14----14----14-|----14----14----14----14-|
|-11----11----11----11----|-11----11----11----11----|
|-------------------------|-------------------------|
|-------------------------|-------------------------|
|-------------------------|-------------------------|
|-------------------------|-------------------------|


  N.C.(G#sus2)
   Q    Q    Q    Q      Q    Q    Q    Q
|---------------------|---------------------|
|---------------------|---------------------|
|-------3---------3---|-------3---------3---|
|--6---------6--------|--6---------6--------|
|---------------------|---------------------|
|---------------------|---------------------|
|
|  E E  E E  E E  E E    E E  E E  E E  E E
|----7----7----7----7-|----7----7----7----7-|
|-11---11---11---11---|-11---11---11---11---|
|---------------------|---------------------|
|---------------------|---------------------|
|---------------------|---------------------|
|---------------------|---------------------|


  N.C.(Bsus2)           N.C.
   Q    Q    Q    Q      H           Q.       E
|---------------------|-------------------------|
|---------------------|-------------------------|
|-------6---------6---|-/8-----------6--------4-|
|-/9---------9--------|-------------------------|
|---------------------|-------------------------|
|---------------------|-------------------------|
|
|  E E  E E  E E  E E    E  E  E  E  E   E  Q
|----9----9----9----9-|----11----11-----11-14---|
|-11---11---11---11---|-11----11----11----------|
|---------------------|-------------------------|
|---------------------|-------------------------|
|---------------------|-------------------------|
|---------------------|-------------------------|


 Pre-Chorus
  N.C.
  Gtr I
   E E E E  E E E E     E E E E  E E E E
|--------------------|--------------------|
|--------------------|--------------------|
|--------------------|--------------------|
|--8---6----8h9p8p6--|----6-8----8h9p8----|
|----6---6-----------|--6-----6--------6p-|
|--------------------|--------------------|
|
| Gtr II
|  E E E E  E E E E     E E E E  E E E E
|----------11p9p7----|----------11p9p7----|
|-11---9----------7p-|-11---9----------7p-|
|----8---8-----------|----8---8-----------|
|--------------------|--------------------|
|--------------------|--------------------|
|--------------------|--------------------|


   E E E E E E E E    E E E  E  E E E E
|-------------------|--------------------|
|-------------------|--------------------|
|-------------------|--------------------|
|--8---6---8h9p8p6--|---6-8-----8h9p8----|
|----6---6----------|-6------6--------6p-|
|-------------------|--------------------|
|
|  E E E E E E E E    E E E  E  E E E E
|----------6h7p6----|----------11p9p7----|
|-11---9---------7p-|---9---11--------7p-|
|----8---8----------|-8---8--------------|
|-------------------|--------------------|
|-------------------|--------------------|
|-------------------|--------------------|


   E E E E E E E E    E E E  E  E E E E
|-------------------|--------------------|
|-------------------|--------------------|
|-------------------|--------------------|
|--8---6---8h9p8p6--|---6-8-----8h9p8----|
|----6---6----------|-6------6--------6p-|
|-------------------|--------------------|
|
|  E E E E E E E E    E E E  E  E E E E
|----------6h7p6----|----------11p9p7----|
|-11---9---------7p-|---9---11--------7p-|
|----8---8----------|-8---8--------------|
|-------------------|--------------------|
|-------------------|--------------------|
|-------------------|--------------------|


   E E E E E E E E    E E E  E  E E E E
|-------------------|--------------------|
|-------------------|--------------------|
|-------------------|--------------------|
|--8---6---8h9p8p6--|---6-8-----8h9p8----|
|----6---6----------|-6------6--------6p-|
|-------------------|--------------------|
|
|  E E E E E E E E    E E E  E  E E E E
|----------6h7p6----|----------11p9p7----|
|-11---9---------7p-|---9---11--------7p-|
|----8---8----------|-8---8--------------|
|-------------------|--------------------|
|-------------------|--------------------|
|-------------------|--------------------|


   Chorus
    G#5               (F#5)
    Q  E E Q  E E   E   E  E  E  E  E  E  E
||----------------|-------------------------|
||o---------------|-------------------------|
||----------------|---/11-11-11-11-11-11-11-|
||--6--6-6-6--6-6-|-x--/x--x--x--x--x--x--x-|
||o-6--6-6-6--6-6-|-x--/9--9--9--9--9--9--9-|
||--6--6-6-6--6-6-|-x-----------------------|
|
|   Q  E E Q  E E   E   E  E  E  E  E  E  E
||----------------|-------------------------|
||o---------------|-------------------------|
||----------------|---/11-11-11-11-11-11-11-|
||--6--6-6-6--6-6-|-x--/x--x--x--x--x--x--x-|
||o-6--6-6-6--6-6-|-x--/9--9--9--9--9--9--9-|
||--6--6-6-6--6-6-|-x-----------------------|


  E5                (D#5)
  Q  E E Q  E E   E  E E E E E E E
|---------------|-------------------|
|---------------|-------------------|
|---------------|---/8-8-8-8-6-4-6--|
|-2--2-2-2--2-2-|-x-/x-x-x-x-x-x-x--|
|-2--2-2-2--2-2-|-x-/6-6-6-6-4-2-4--|
|-2--2-2-2--2-2-|-x-----------------|
|
| Q  E E Q  E E   E  E E E E E E E
|---------------|-------------------|
|---------------|-------------------|
|---------------|---/8-8-8-8-6-4-6--|
|-2--2-2-2--2-2-|-x-/x-x-x-x-x-x-x--|
|-2--2-2-2--2-2-|-x-/6-6-6-6-4-2-4--|
|-2--2-2-2--2-2-|-x-----------------|


  G#5               (F#5)
  Q  E E Q  E E   E   E  E  E  E  E  E  E
|---------------|-------------------------|
|---------------|-------------------------|
|---------------|---/11-11-11-11-11-11-11-|
|-6--6-6-6--6-6-|-x--/x--x--x--x--x--x--x-|
|-6--6-6-6--6-6-|-x--/9--9--9--9--9--9--9-|
|-6--6-6-6--6-6-|-x-----------------------|
|
| Q  E E Q  E E   E   E  E  E  E  E  E  E
|---------------|-------------------------|
|---------------|-------------------------|
|---------------|---/11-11-11-11-11-11-11-|
|-6--6-6-6--6-6-|-x--/x--x--x--x--x--x--x-|
|-6--6-6-6--6-6-|-x--/9--9--9--9--9--9--9-|
|-6--6-6-6--6-6-|-x-----------------------|


  F#5             E5          (D#5)  (C#5)
                  PM--------|
  Q  E E Q  E E   E E S S S S  E E E E
|---------------|-----------------------||
|---------------|----------------------o||
|---------------|-------------/8-8-8-6--||
|-4--4-4-4--4-4-|-------------/x-x-x-x--||
|-4--4-4-4--4-4-|-2-2-2-2-2-2-/6-6-6-4-o||
|-4--4-4-4--4-4-|-2-2-2-2-2-2-----------||
|
|                 PM--------|
| Q  E E Q  E E   E E S S S S  E E E E
|---------------|-----------------------||
|---------------|----------------------o||
|---------------|-------------/8-8-8-6--||
|-4--4-4-4--4-4-|-------------/x-x-x-x--||
|-4--4-4-4--4-4-|-2-2-2-2-2-2-/6-6-6-4-o||
|-4--4-4-4--4-4-|-2-2-2-2-2-2-----------||


 Pre-Verse
  N.C.
  Gtr III
   <                <                  <
   Q     q      q   Q       q      q   Q     q
|-14---------------14----|------------14--------|
|-------14-----14--------|-14-----14--------14--|
|------------------------|----------------------|
|------------------------|----------------------|
|------------------------|----------------------|
|------------------------|----------------------|
|
|  E  E  E  Q.      E  E    E  Q.      E  E  Q
|------------------------|----------------------|
|-11-12-11-12------11-12-|-11-12------11-12-11--|
|------------------------|----------------------|
|------------------------|----------------------|
|------------------------|----------------------|
|------------------------|----------------------|


 Verse
  N.C.(G#sus2)
    Q       Q       Q       Q         Q       Q       Q       Q
|---------------------------------|---------------------------------|
|---------------------------------|---------------------------------|
|-----------3---------------3-----|-----------3---------------3-----|
|---6---------------6-------------|---6---------------6-------------|
|---------------------------------|---------------------------------|
|---------------------------------|---------------------------------|
|
|   E   E   E   E   E   E   E   E     E   E   E   E   E   E   E   E
|-------7-------7-------7-------7-|-------7-------7-------7-------7-|
|--11------11------11------11-----|--11------11------11------11-----|
|---------------------------------|---------------------------------|
|---------------------------------|---------------------------------|
|---------------------------------|---------------------------------|
|---------------------------------|---------------------------------|
|
| Gtr IV
|   E   E   E   E   E   E   E   E     E   E   E   E   E   E   E   E
|------14------14------14------14-|------14------14------14------14-|
|-(11)----(11)----(11)----(11)----|-(11)----(11)----(11)----(11)----|
|---------------------------------|---------------------------------|
|---------------------------------|---------------------------------|
|---------------------------------|---------------------------------|
|---------------------------------|---------------------------------|


  N.C.(G#m)
    Q       Q       Q       Q         Q       Q       Q       Q
|---------------------------------|---------------------------------|
|---------------------------------|---------------------------------|
|-----------4---------------4-----|-----------4---------------4-----|
|---6---------------6-------------|---6---------------6-------------|
|---------------------------------|---------------------------------|
|---------------------------------|---------------------------------|
|
|   E   E   E   E   E   E   E   E     E   E   E   E   E   E   E   E
|------14------14------14------14-|------14------14------14------14-|
|--11------11------11------11-----|--11------11------11------11-----|
|---------------------------------|---------------------------------|
|---------------------------------|---------------------------------|
|---------------------------------|---------------------------------|
|---------------------------------|---------------------------------|
|
|   E   E   E   E   E   E   E   E     E   E   E   E   E   E   E   E
|------14------14------14------14-|------14------14------14------14-|
|-(11)----(11)----(11)----(11)----|-(11)----(11)----(11)----(11)----|
|---------------------------------|---------------------------------|
|---------------------------------|---------------------------------|
|---------------------------------|---------------------------------|
|---------------------------------|---------------------------------|


  N.C.(G#sus2)
    Q       Q       Q       Q         Q       Q       Q       Q
|---------------------------------|---------------------------------|
|---------------------------------|---------------------------------|
|-----------3---------------3-----|-----------3---------------3-----|
|---6---------------6-------------|---6---------------6-------------|
|---------------------------------|---------------------------------|
|---------------------------------|---------------------------------|
|
|   E   E   E   E   E   E   E   E     E   E   E   E   E   E   E   E
|-------7-------7-------7-------7-|-------7-------7-------7-------7-|
|--11------11------11------11-----|--11------11------11------11-----|
|---------------------------------|---------------------------------|
|---------------------------------|---------------------------------|
|---------------------------------|---------------------------------|
|---------------------------------|---------------------------------|
|
|   E   E   E   E   E   E   E   E     E   E   E   E   E   E   E   E
|------14------14------14------14-|------14------14------14------14-|
|-(11)----(11)----(11)----(11)----|-(11)----(11)----(11)----(11)----|
|---------------------------------|---------------------------------|
|---------------------------------|---------------------------------|
|---------------------------------|---------------------------------|
|---------------------------------|---------------------------------|


  N.C.(G#m)
    Q       Q       Q       Q         Q       Q       Q      Q
|---------------------------------|-------------------------------|
|---------------------------------|-------------------------------|
|-----------4---------------4-----|-----------4--------------4----|
|---6---------------6-------------|---6---------------6-----------|
|---------------------------------|-------------------------------|
|---------------------------------|-------------------------------|
|
|   E   E   E   E   E   E   E   E     E   E   E   E   E   E  E  E
|-------9-------9-------9-------9-|------11------11------11----11-|
|--11------11------11------11-----|--11------11------11-----11----|
|---------------------------------|-------------------------------|
|---------------------------------|-------------------------------|
|---------------------------------|-------------------------------|
|---------------------------------|-------------------------------|
|
|   E   E   E   E   E   E   E   E     E   E   E   E   E   E  Q
|------14------14------14------14-|------14------14------14-------|
|-(11)----(11)----(11)----(11)----|-(11)----(11)----(11)----11----|
|---------------------------------|-------------------------------|
|---------------------------------|-------------------------------|
|---------------------------------|-------------------------------|
|---------------------------------|-------------------------------|


  N.C.(G#sus2)
    Q       Q       Q       Q         Q       Q       Q       Q
|---------------------------------|---------------------------------|
|---------------------------------|---------------------------------|
|-----------3---------------3-----|-----------3---------------3-----|
|---6---------------6-------------|---6---------------6-------------|
|---------------------------------|---------------------------------|
|---------------------------------|---------------------------------|
|
|   E   E   E   E   E   E   E   E     E   E   E   E   E   E   E   E
|-------7-------7-------7-------7-|-------7-------7-------7-------7-|
|--11------11------11------11-----|--11------11------11------11-----|
|---------------------------------|---------------------------------|
|---------------------------------|---------------------------------|
|---------------------------------|---------------------------------|
|---------------------------------|---------------------------------|
|
|   E   E   E   E   E   E   E   E     E   E   E   E   E   E   E   E
|------14------14------14------14-|------14------14------14------14-|
|-(11)----(11)----(11)----(11)----|-(11)----(11)----(11)----(11)----|
|---------------------------------|---------------------------------|
|---------------------------------|---------------------------------|
|---------------------------------|---------------------------------|
|---------------------------------|---------------------------------|


  N.C.(G#m)
    Q       Q       Q       Q         Q       Q       Q       Q
|---------------------------------|---------------------------------|
|---------------------------------|---------------------------------|
|-----------4---------------4-----|-----------4---------------4-----|
|---6---------------6-------------|---6---------------6-------------|
|---------------------------------|---------------------------------|
|---------------------------------|---------------------------------|
|
|   E   E   E   E   E   E   E   E     E   E   E   E   E   E   E   E
|------14------14------14------14-|------14------14------14------14-|
|--11------11------11------11-----|--11------11------11------11-----|
|---------------------------------|---------------------------------|
|---------------------------------|---------------------------------|
|---------------------------------|---------------------------------|
|---------------------------------|---------------------------------|
|
|   E   E   E   E   E   E   E   E     E   E   E   E   E   E   E   E
|------14------14------14------14-|------14------14------14------14-|
|-(11)----(11)----(11)----(11)----|-(11)----(11)----(11)----(11)----|
|---------------------------------|---------------------------------|
|---------------------------------|---------------------------------|
|---------------------------------|---------------------------------|
|---------------------------------|---------------------------------|


  N.C.(G#sus2)
    Q       Q       Q       Q         Q       Q       Q       Q
|---------------------------------|---------------------------------|
|---------------------------------|---------------------------------|
|-----------3---------------3-----|-----------3---------------3-----|
|---6---------------6-------------|---6---------------6-------------|
|---------------------------------|---------------------------------|
|---------------------------------|---------------------------------|
|
|   E   E   E   E   E   E   E   E     E   E   E   E   E   E   E   E
|-------7-------7-------7-------7-|-------7-------7-------7-------7-|
|--11------11------11------11-----|--11------11------11------11-----|
|---------------------------------|---------------------------------|
|---------------------------------|---------------------------------|
|---------------------------------|---------------------------------|
|---------------------------------|---------------------------------|
|
|   E   E   E   E   E   E   E   E     E   E   E   E   E   E   E   E
|------14------14------14------14-|------14------14------14------14-|
|-(11)----(11)----(11)----(11)----|-(11)----(11)----(11)----(11)----|
|---------------------------------|---------------------------------|
|---------------------------------|---------------------------------|
|---------------------------------|---------------------------------|
|---------------------------------|---------------------------------|


  N.C.(C#m)                         N.C.(G#5)
    Q       Q       Q       Q         Q       Q       Q      Q
|---------------------------------|-------------------------------|
|---------------------------------|-------------------------------|
|-----------6---------------6-----|-----------8--------------8----|
|---6---------------6-------------|---6---------------6-----------|
|---------------------------------|-------------------------------|
|---------------------------------|-------------------------------|
|
|   E   E   E   E   E   E   E   E     E   E   E   E   E   E  E  E
|-------9-------9-------9-------9-|------11------11------11----11-|
|--11------11------11------11-----|--11------11------11-----11----|
|---------------------------------|-------------------------------|
|---------------------------------|-------------------------------|
|---------------------------------|-------------------------------|
|---------------------------------|-------------------------------|
|
|   E   E   E   E   E   E   E   E     E   E   E   E   E   E  Q
|------14------14------14------14-|------14------14------14-------|
|-(11)----(11)----(11)----(11)----|-(11)----(11)----(11)----11----|
|---------------------------------|-------------------------------|
|---------------------------------|-------------------------------|
|---------------------------------|-------------------------------|
|---------------------------------|-------------------------------|


 Pre-Chorus
  E5                                      F#5
  Gtr I
   PM------------------------------------------------------------------------|
   E E E E  E E E E    E E E E  E E E E    E E E E E E E E   E E E  E  E E E E
|-------------------|-------------------|------------------|-------------------|
|-------------------|-------------------|------------------|-------------------|
|-------------------|-------------------|------------------|-------------------|
|-------------------|-------------------|------------------|-------------------|
|--2-2-2-2--2-2-2-2-|--2-2-2-2--2-2-2-2-|--4-4-4-4-4-4-4-4-|-4-4-4--4--4-4-4-4-|
|--2-2-2-2--2-2-2-2-|--2-2-2-2--2-2-2-2-|--4-4-4-4-4-4-4-4-|-4-4-4--4--4-4-4-4-|
|
| Gtr II
|  E E E E  E E E E    E E E E  E E E E    E E E E E E E E   E E E  E  E E E E
|----------11-9-7---|----------11-9-7---|----------6-7-6---|----------11-9-7---|
|-11---9----------7-|-11---9----------7-|-11---9---------7-|---9---11--------7-|
|----8---8----------|----8---8----------|----8---8---------|-8---8-------------|
|-------------------|-------------------|------------------|-------------------|
|-------------------|-------------------|------------------|-------------------|
|-------------------|-------------------|------------------|-------------------|


  D#5                                    G#5
   PM-----------------------------------------------------------------------|
   E E E E E E E E   E E E  E  E E E E    E E E E E E E E   E E E  E  E E E E
|------------------|-------------------|------------------|-------------------|
|------------------|-------------------|------------------|-------------------|
|------------------|-------------------|------------------|-------------------|
|--8-8-8-8-8-8-8-8-|-8-8-8--8--8-8-8-8-|------------------|-------------------|
|--6-6-6-6-6-6-6-6-|-6-6-6--6--6-6-6-6-|--6-6-6-6-6-6-6-6-|-4-4-4--4--4-4-4-4-|
|------------------|-------------------|--6-6-6-6-6-6-6-6-|-4-4-4--4--4-4-4-4-|
|
|  E E E E E E E E   E E E  E  E E E E    E E E E E E E E   E E E  E  E E E E
|----------6-7-6---|----------11-9-7---|----------6-7-6---|----------11-9-7---|
|-11---9---------7-|---9---11--------7-|-11---9---------7-|---9---11--------7-|
|----8---8---------|-8---8-------------|----8---8---------|-8---8-------------|
|------------------|-------------------|------------------|-------------------|
|------------------|-------------------|------------------|-------------------|
|------------------|-------------------|------------------|-------------------|


   Chorus
    G#5                    (F#5)
     Q   E E  Q   E E    E   E  E  E  E  E  E  E
||--------------------|--------------------------|
||o-------------------|--------------------------|
||--------------------|----/11-11-11-11-11-11-11-|
||---6---6-6--6---6-6-|--x--/x--x--x--x--x--x--x-|
||o--6---6-6--6---6-6-|--x--/9--9--9--9--9--9--9-|
||---6---6-6--6---6-6-|--x-----------------------|
|
|    E E E E  E E E E    E   E  E  E  E  E  E  E
||-----------11-9-7---|--------------11--9--7----|
||o-11---9----------7-|-11------9--------------7-|
||-----8---8----------|------8-----8-------------|
||--------------------|--------------------------|
||o-------------------|--------------------------|
||--------------------|--------------------------|


  E5
   Q   E E Q   E E   Q   E  Q    E E E
|------------------|--------------------|
|------------------|--------------------|
|------------------|--------------------|
|--2---2-2-2---2-2-|-2---2--2----2-2-2--|
|--2---2-2-2---2-2-|-2---2--2----2-2-2--|
|--2---2-2-2---2-2-|-2---2--2----2-2-2--|
|
|  E E E E E E E E   E E E  E  E E E E
|----------6-7-6---|----------11-9-7----|
|-11---9---------7-|---9---11--------7--|
|----8---8---------|-8---8--------------|
|------------------|--------------------|
|------------------|--------------------|
|------------------|--------------------|


  G#5                  (F#5)
   Q   E E Q   E E   E   E  E  E  E  E  E  E
|------------------|-------------------------|
|------------------|-------------------------|
|------------------|---/11-11-11-11-11-11-11-|
|--6---6-6-6---6-6-|-x--/x--x--x--x--x--x--x-|
|--6---6-6-6---6-6-|-x--/9--9--9--9--9--9--9-|
|--6---6-6-6---6-6-|-x-----------------------|
|
|  E E E E E E E E   E   E  E  E  E  E  E  E
|----------6-7-6---|-------------11--9--7----|
|-11---9---------7-|-----9----11-----------7-|
|----8---8---------|-8------8----------------|
|------------------|-------------------------|
|------------------|-------------------------|
|------------------|-------------------------|


  F#5                E5           (D#5)  (C#5)
                     PM---------|
   Q   E E Q   E E   E E S S  S S  E E E E
|------------------|------------------------||
|------------------|-----------------------o||
|------------------|--------------/8-8-8-6--||
|--4---4-4-4---4-4-|--------------/x-x-x-x--||
|--4---4-4-4---4-4-|-2-2-2-2--2-2-/6-6-6-4-o||
|--4---4-4-4---4-4-|-2-2-2-2--2-2-----------||
|
|  E E E E E E E E   E E E    E    E E E E
|----------6-7-6---|--------------11-9-7----||
|-11---9---------7-|---9-----11----------7-o||
|----8---8---------|-8---8------------------||
|------------------|------------------------||
|------------------|-----------------------o||
|------------------|------------------------||


 Breakdown
  N.C.
  W          W          W           W
|----------|----------|----------|-------|
|----------|----------|----------|-------|
|----------|----------|----------|-------|
|----------|----------|----------|-------|
|----------|----------|----------|-------|
|----------|----------|----------|-------|
|
|                                   <
| W          W          W           W
|----------|----------|----------|--7----|
|----------|----------|----------|-11----|
|----------|----------|----------|-------|
|----------|----------|----------|-------|
|----------|----------|----------|-------|
|----------|----------|----------|-------|


   Interlude
    G#5                                 D#5
    E Q   E E Q   E   E Q   E E E E E   E Q   E E Q   E   E Q   E E E E E
||------------------|-----------------|-----------------|------------------|
||o-----------------|-----------------|-----------------|------------------|
||------------------|-----------------|-8-8---8-8-8---8-|-8-8---8-8-8-8-8--|
||--6-6---6-6-6---6-|-6-6---6-6-6-6-6-|-8-8---8-8-8---8-|-8-8---8-8-8-8-8--|
||o-6-6---6-6-6---6-|-6-6---6-6-6-6-6-|-6-6---6-6-6---6-|-6-6---6-6-6-6-6--|
||--6-6---6-6-6---6-|-6-6---6-6-6-6-6-|-----------------|------------------|
|
|       PM    PM      PM    PM    PM        PM    PM      PM    PM    PM
|   E E E E E E E E   E E E E E E E E   E E E E E E E E   E E E E E E E E
||------------------|-----------------|-----------------|------------------|
||o-----------------|-----------------|-----------------|------------------|
||------------------|-----------------|-----------------|------------------|
||--6p4---6p4---6p4-|---6p4---6p4-----|-8p6---8p6---8p6-|---8p6---8p6------|
||o-----6-----6-----|-6-----6-----6---|-----6-----6-----|-6-----6-----6----|
||------------------|-----------------|-----------------|------------------|


  B5                                  F#5                 E5
  E Q   E E Q   E   E Q   E E E E E   E Q   E E Q   E   E Q   E E E E E  3x
|-----------------|-----------------|-----------------|------------------||
|-----------------|-----------------|-----------------|-----------------o||
|-----------------|-----------------|-----------------|------------------||
|-9-9---9-9-9---9-|-9-9---9-9-9-9-9-|-4-4---4-4-4---4-|-4-2---2-2-2-2-2--||
|-9-9---9-9-9---9-|-9-9---9-9-9-9-9-|-4-4---4-4-4---4-|-4-2---2-2-2-2-2-o||
|-9-9---9-9-9---9-|-9-9---9-9-9-9-9-|-4-4---4-4-4---4-|-4-2---2-2-2-2-2--||
|
|     PM    PM      PM    PM    PM        PM    PM      PM------------|
| E E E E E E E E   E E E E E E E E   E E E E E E E E   E E E E E E E E  3x
|-----------------|-----------------|-----------------|------------------||
|-----------------|-----------------|-----------------|-----------------o||
|-----------------|-----------------|-----------------|------------------||
|-9p8---9p8---9p8-|---9p8---9p8-----|-8p6---8p6---8p6-|---------9--------||
|-----6-----6-----|-6-----6-----6---|-----6-----6-----|-6-6h7p6---7p6h7-o||
|-----------------|-----------------|-----------------|------------------||


   Out-Chorus
    G#5               (F#5)
    Q  E E Q  E E   E   E  E  E  E  E  E  E
||----------------|-------------------------|
||o---------------|-------------------------|
||----------------|---/11-11-11-11-11-11-11-|
||--6--6-6-6--6-6-|-x--/x--x--x--x--x--x--x-|
||o-6--6-6-6--6-6-|-x--/9--9--9--9--9--9--9-|
||--6--6-6-6--6-6-|-x-----------------------|
|
|   Q  E E Q  E E   E   E  E  E  E  E  E  E
||----------------|-------------------------|
||o---------------|-------------------------|
||----------------|---/11-11-11-11-11-11-11-|
||--6--6-6-6--6-6-|-x--/x--x--x--x--x--x--x-|
||o-6--6-6-6--6-6-|-x--/9--9--9--9--9--9--9-|
||--6--6-6-6--6-6-|-x-----------------------|


  E5                (D#5)
  Q  E E Q  E E   E  E E E E E E E
|---------------|-------------------|
|---------------|-------------------|
|---------------|---/8-8-8-8-6-4-6--|
|-2--2-2-2--2-2-|-x-/x-x-x-x-x-x-x--|
|-2--2-2-2--2-2-|-x-/6-6-6-6-4-2-4--|
|-2--2-2-2--2-2-|-x-----------------|
|
| Q  E E Q  E E   E  E E E E E E E
|---------------|-------------------|
|---------------|-------------------|
|---------------|---/8-8-8-8-6-4-6--|
|-2--2-2-2--2-2-|-x-/x-x-x-x-x-x-x--|
|-2--2-2-2--2-2-|-x-/6-6-6-6-4-2-4--|
|-2--2-2-2--2-2-|-x-----------------|


  G#5               (F#5)
  Q  E E Q  E E   E   E  E  E  E  E  E  E
|---------------|-------------------------|
|---------------|-------------------------|
|---------------|---/11-11-11-11-11-11-11-|
|-6--6-6-6--6-6-|-x--/x--x--x--x--x--x--x-|
|-6--6-6-6--6-6-|-x--/9--9--9--9--9--9--9-|
|-6--6-6-6--6-6-|-x-----------------------|
|
| Q  E E Q  E E   E   E  E  E  E  E  E  E
|---------------|-------------------------|
|---------------|-------------------------|
|---------------|---/11-11-11-11-11-11-11-|
|-6--6-6-6--6-6-|-x--/x--x--x--x--x--x--x-|
|-6--6-6-6--6-6-|-x--/9--9--9--9--9--9--9-|
|-6--6-6-6--6-6-|-x-----------------------|


  F#5             E5          (D#5)  (C#5)
                  PM--------|
  Q  E E Q  E E   E E S S S S  E E E E
|---------------|-----------------------||
|---------------|----------------------o||
|---------------|-------------/8-8-8-6--||
|-4--4-4-4--4-4-|-------------/x-x-x-x--||
|-4--4-4-4--4-4-|-2-2-2-2-2-2-/6-6-6-4-o||
|-4--4-4-4--4-4-|-2-2-2-2-2-2-----------||
|
|                 PM--------|
| Q  E E Q  E E   E E S S S S  E E E E
|---------------|-----------------------||
|---------------|----------------------o||
|---------------|-------------/8-8-8-6--||
|-4--4-4-4--4-4-|-------------/x-x-x-x--||
|-4--4-4-4--4-4-|-2-2-2-2-2-2-/6-6-6-4-o||
|-4--4-4-4--4-4-|-2-2-2-2-2-2-----------||


  E5          (D#5)  (C#5E5          (D#5)  (C#5E5          (D#(C#5)
  PM--------|            PM--------|            PM--------|
  E E S S S S  E E E E   E E S S S S  E E E E   E E S S S S  E Q.
|----------------------|----------------------|---------------------|
|----------------------|----------------------|---------------------|
|-------------/8-8-8-6-|-------------/8-8-8-6-|-------------/8-6----|
|-------------/x-x-x-x-|-------------/x-x-x-x-|-------------/x-x----|
|-2-2-2-2-2-2-/6-6-6-4-|-2-2-2-2-2-2-/6-6-6-4-|-2-2-2-2-2-2-/6-4----|
|-2-2-2-2-2-2----------|-2-2-2-2-2-2----------|-2-2-2-2-2-2---------|
|
| PM--------|            PM--------|            PM--------|
| E E S S S S  E E E E   E E S S S S  E E E E   E E S S S S  H
|----------------------|----------------------|---------------------|
|----------------------|----------------------|---------------------|
|-------------/8-8-8-6-|-------------/8-8-8-6-|-------------/8------|
|-------------/x-x-x-x-|-------------/x-x-x-x-|-------------/x------|
|-2-2-2-2-2-2-/6-6-6-4-|-2-2-2-2-2-2-/6-6-6-4-|-2-2-2-2-2-2-/6------|
|-2-2-2-2-2-2----------|-2-2-2-2-2-2----------|-2-2-2-2-2-2---------|


  G#5
  >
  W          +W           +W           +W
|----------|------------|------------|--------*|
|----------|------------|------------|--------*|
|----------|------------|------------|--------*|
|-6--------|-(6)--------|-(6)--------|-(6)----*|
|-6--------|-(6)--------|-(6)--------|-(6)----*|
|-6--------|-(6)--------|-(6)--------|-(6)----*|
|
| >
| W          +W           +W           +W
|----------|------------|------------|--------*|
|----------|------------|------------|--------*|
|----------|------------|------------|--------*|
|-6--------|-(6)--------|-(6)--------|-(6)----*|
|-6--------|-(6)--------|-(6)--------|-(6)----*|
|-6--------|-(6)--------|-(6)--------|-(6)----*|


Duration Legend
---------------
W - whole; H - half; Q - quarter; E - 8th; S - 16th; T - 32nd; X - 64th; a - acciaccatura
+ - note tied to previous; . - note dotted; .. - note double dotted
Uncapitalized letters represent notes that are staccato (1/2 duration)
Irregular groupings are notated above the duration line
Duration letters will always appear directly above the note/fret number it represents the
duration for.  Duration letters with no fret number below them represent rests.  Multi-
bar rests are notated in the form Wxn, where n is the number of bars to rest for.  Low
melody durations appear below the staff

Tablature Legend
----------------
 h   - hammer-on
 p   - pull-off
 b   - bend
 pb  - pre-bend
 r   - bend release (if no number after the r, then release immediately)
 /\  - slide into or out of (from/to "nowhere")
 s   - legato slide
 S   - shift slide
  - natural harmonic
[n]  - artificial harmonic
n(n) - tapped harmonic
 ~   - vibrato
 tr  - trill
 T   - tap
 TP  - trem. picking
 PM  - palm muting
\n/  - tremolo bar dip; n = amount to dip
 \n  - tremolo bar down
 n/  - tremolo bar up
/n\  - tremolo bar inverted dip
 =   - hold bend; also acts as connecting device for hammers/pulls
 <>  - volume swell (louder/softer)
 x   - on rhythm slash represents muted slash
 o   - on rhythm slash represents single note slash

Misc Legend
-----------
 |  - bar
||  - double bar
||o - repeat start
o|| - repeat end
*|  - double bar (ending)
 :  - bar (freetime)
 $  - Segno
 &  - Coda
Tempo markers -  = BPM(8/16=s8/s16), where s8 = swing 8ths, s16 = swing 16ths


***************************************************************************************
* Generated using Power Tab Editor by Brad Larsen - http://powertab.guitarnetwork.org *
***************************************************************************************
5 comments total. Showing first comments.
0 reply
K.B Spades wrote on April 11 2006, 02:27 pm

i herd better sounds coming out of my ass

0 reply
Rian46 wrote on July 30 2006, 10:24 am

You must be easily impressed then.

0 reply
koolass wrote on October 1 2006, 08:24 pm

I agree with K.B spades

I want to post or [tab]
guest
You may want to rate the tab now too:
select rating
Please do not post tabs as comments. Select "correction" instead!