Oops, an error
Loading. Please wait.

Finding Home Tab

ver2
ver2

Whole song

Interactive

More versions @911Tabs.com
3,850 views 1 this week
3 commentsread comments
1 2 3 4 5
accurate
x 4
Autoscroll
+/-
esc
set tempo
stop
Contributor
Difficulty
advanced
Hey! There's an official Ultimate Guitar app which is ideal
for learning songs when you're away from computer. Get the app
WARNING: You are trying to view
                                    content from Ultimate-Guitar.com
                                    in an unauthorized application,
                                    which is prohibited.

                                    Please use an official Ultimate
                                    Guitar Tabs application for iPhone,
                                    iPad or Android to access legitimate
                                    chords, guitar, bass, and drum tabs
                                    from Ultimate-Guitar.com database.

                                    Type "ultimate guitar tabs" in Apple
                                    App Store's or Android Market's
                                    search to find the application.
Drop D
  
 Intro
    Q=100
    $
   4/4
    Gtr I
                                                                            3x
||------------------|-----------------|-----------------|-------------------||
||o-----------------|-----------------|-----------------|------------------o||
||--6---7---6---7---|-6---7---6---7---|-6---7---6---7---|-6---7---6---7-----||
||----7---7---7---7-|---7---7---7---7-|---7---7---7---7-|---7---7---7---7---||
||o-----------------|-----------------|-----------------|------------------o||
||------------------|-----------------|-----------------|-------------------||


 Pre-Chorus
|-----------------|-----------------|
|-----------------|-----------------|
|-6---7---6---7---|-6---7---6---7---|
|---7---7---7---7-|---7---7---7---7-|
|-----------------|-----------------|
|-----------------|-----------------|
|
| Gtr II
|                         PM--|
|-----------------|-----------------|
|-----------------|-----------------|
|-----------------|-------------7---|
|-----------------|-------2-0-0-7---|
|-----------------|-------2-0-0-----|
|-----------------|-------2-0-0-----|


 Chorus
                                                           To Coda
  Gtr III
|----------------|----------------|----------------|-----------------|
|----------------|----------------|----------------|-----------------|
|----------7-6-0-|----------6-7-9-|----------7-6-0-|----------6-7-9--|
|-9-9-4-0--7-7-7-|-7-7-0-2--7-7-7-|-9-9-4-0--7-7-7-|-7-7-0-2--7-7-7--|
|-9-9-4-0--------|-7-7-0-2--------|-9-9-4-0--------|-7-7-0-2---------|
|-9-9-4-0--------|-7-7-0-2--------|-9-9-4-0--------|-7-7-0-2---------|
|
| Gtr II
|----------------|----------------|----------------|-----------------|
|----------------|----------------|----------------|-----------------|
|----------7-6-0-|----------6-7-9-|----------7-6-0-|----------6-7-9--|
|-9-9-4-0--7-7-7-|-7-7-5-2--7-7-7-|-9-9-4-0--7-7-7-|-7-7-0-2--7-7-7--|
|-9-9-4-0--------|-7-7-5-2--------|-9-9-4-0--------|-7-7-0-2---------|
|-9-9-4-0--------|-7-7-5-2--------|-9-9-4-0--------|-7-7-0-2---------|


                       D.S. al Coda
|-----------------|-----------------|
|-----------------|-----------------|
|-----------------|-----------------|
|-5-5-5-5-5-5-5-5-|-5-5-5-5-5-5-5\--|
|-5-5-5-5-5-5-5-5-|-5-5-5-5-5-5-5\--|
|-5-5-5-5-5-5-5-5-|-5-5-5-5-5-5-5\--|
|
|-----------------|-----------------|
|-----------------|-----------------|
|-----------------|-----------------|
|-5-5-5-5-5-5-5-5-|-5-5-5-5-5-5-5\--|
|-5-5-5-5-5-5-5-5-|-5-5-5-5-5-5-5\--|
|-5-5-5-5-5-5-5-5-|-5-5-5-5-5-5-5\--|


  &
  Gtr III
|----------------|----------------|----------------|-----------------|
|----------------|----------------|----------------|-----------------|
|----------7-6-0-|----------6-7-9-|----------7-6-0-|----------6-7-9--|
|-9-9-4-0--7-7-7-|-7-7-0-2--7-7-7-|-9-9-4-0--7-7-7-|-7-7-0-2--7-7-7--|
|-9-9-4-0--------|-7-7-0-2--------|-9-9-4-0--------|-7-7-0-2---------|
|-9-9-4-0--------|-7-7-0-2--------|-9-9-4-0--------|-7-7-0-2---------|
|
| Gtr II
|----------------|----------------|----------------|-----------------|
|----------------|----------------|----------------|-----------------|
|----------7-6-0-|----------6-7-9-|----------7-6-0-|----------6-7-9--|
|-9-9-4-0--7-7-7-|-7-7-5-2--7-7-7-|-9-9-4-0--7-7-7-|-7-7-0-2--7-7-7--|
|-9-9-4-0--------|-7-7-5-2--------|-9-9-4-0--------|-7-7-0-2---------|
|-9-9-4-0--------|-7-7-5-2--------|-9-9-4-0--------|-7-7-0-2---------|

Breakdown
  Q=100
|-------------------------------------------------|
|-------------------------------------------------|
|-------------------------------------------------|
|--5--5--5--5--5--5--5--5--5--5--5--5--5--5--5--5-|
|--5--5--5--5--5--5--5--5--5--5--5--5--5--5--5--5-|
|--5--5--5--5--5--5--5--5--5--5--5--5--5--5--5--5-|
|
|-------------------------------------------------|
|-15-15-15-15-15-15-15-15-15-15-15-15-15-15-15-15-|
|-12-12-12-12-12-12-12-12-12-12-12-12-12-12-12-12-|
|-12-12-12-12-12-12-12-12-12-12-12-12-12-12-12-12-|
|-------------------------------------------------|
|-------------------------------------------------|


|-------------------------------------------------|
|-------------------------------------------------|
|-------------------------------------------------|
|--7--7--7--7--7--7--7--7--7--7--7--7--7--7--7--7-|
|--7--7--7--7--7--7--7--7--7--7--7--7--7--7--7--7-|
|--7--7--7--7--7--7--7--7--7--7--7--7--7--7--7--7-|
|
|-------------------------------------------------|
|-14-14-14-14-14-14-14-14-14-14-14-14-14-14-14-14-|
|-11-11-11-11-11-11-11-11-11-11-11-11-11-11-11-11-|
|-11-11-11-11-11-11-11-11-11-11-11-11-11-11-11-11-|
|-------------------------------------------------|
|-------------------------------------------------|


|-------------------------------------------------|
|-------------------------------------------------|
|-------------------------------------------------|
|--9--9--9--9--9--9--9--9--9--9--9--9--9--9--9--9-|
|--9--9--9--9--9--9--9--9--9--9--9--9--9--9--9--9-|
|--9--9--9--9--9--9--9--9--9--9--9--9--9--9--9--9-|
|
|-------------------------------------------------|
|-14-14-12-12-12-12-12-12-12-12-12-12-12-12-12-12-|
|-11-11--9--9--9--9--9--9--9--9--9--9--9--9--9--9-|
|-11-11--9--9--9--9--9--9--9--9--9--9--9--9--9--9-|
|-------------------------------------------------|
|-------------------------------------------------|


|--------------------------------------------------|
|--------------------------------------------------|
|--------------------------------------------------|
|--9--9--9--9--9--9--9--9--9--9--9--9--9--9--9--9--|
|--9--9--9--9--9--9--9--9--9--9--9--9--9--9--9--9--|
|--9--9--9--9--9--9--9--9--9--9--9--9--9--9--9--9--|
|
|--------------------------------------------------|
|-12-12-12-12-12-12-12-12-10-10-10-10-10-10-10-10--|
|--9--9--9--9--9--9--9--9--7--7--7--7--7--7--7--7--|
|--9--9--9--9--9--9--9--9--7--7--7--7--7--7--7--7--|
|--------------------------------------------------|
|--------------------------------------------------|


|-------------------------------------------------|
|-------------------------------------------------|
|-------------------------------------------------|
|--5--5--5--5--5--5--5--5--5--5--5--5--5--5--5--5-|
|--5--5--5--5--5--5--5--5--5--5--5--5--5--5--5--5-|
|--5--5--5--5--5--5--5--5--5--5--5--5--5--5--5--5-|
|
|-------------------------------------------------|
|-15-15-15-15-15-15-15-15-15-15-15-15-15-15-15-15-|
|-12-12-12-12-12-12-12-12-12-12-12-12-12-12-12-12-|
|-12-12-12-12-12-12-12-12-12-12-12-12-12-12-12-12-|
|-------------------------------------------------|
|-------------------------------------------------|
|
| Gtr IV
|-------------------------------------------------|
|-------------------------------------------------|
|-------------------------------------------------|
|-------------------------------------------------|
|-------------------------------------------------|
|-------------------------------------------------|


|--------------------------------------------------|
|--------------------------------------------------|
|--------------------------------------------------|
|--7--7--7--7--7--7--7--7--7--7--7--7--7--7--7--7--|
|--7--7--7--7--7--7--7--7--7--7--7--7--7--7--7--7--|
|--7--7--7--7--7--7--7--7--7--7--7--7--7--7--7--7--|
|
|--------------------------------------------------|
|-14-14-14-14-14-14-14-14-14-14-14-14-14-14-14-14--|
|-11-11-11-11-11-11-11-11-11-11-11-11-11-11-11-11--|
|-11-11-11-11-11-11-11-11-11-11-11-11-11-11-11-11--|
|--------------------------------------------------|
|--------------------------------------------------|
|
|----------------17-17-------17--------------------|
|-------------------------------------17-17--------|
|--------------------------------------------------|
|--------------------------------------------------|
|--------------------------------------------------|
|--------------------------------------------------|


|-------------------------------------------------|
|-------------------------------------------------|
|-------------------------------------------------|
|--9--9--9--9--9--9--9--9--9--9--9--9--9--9--9--9-|
|--9--9--9--9--9--9--9--9--9--9--9--9--9--9--9--9-|
|--9--9--9--9--9--9--9--9--9--9--9--9--9--9--9--9-|
|
|-------------------------------------------------|
|-14-14-12-12-12-12-12-12-12-12-12-12-12-12-12-12-|
|-11-11--9--9--9--9--9--9--9--9--9--9--9--9--9--9-|
|-11-11--9--9--9--9--9--9--9--9--9--9--9--9--9--9-|
|-------------------------------------------------|
|-------------------------------------------------|
|
|-------------------------------------------------|
|-17-17-19-19-19-19-15-15-17-17-17-15-15-15-15-12-|
|-------------------------------------------------|
|-------------------------------------------------|
|-------------------------------------------------|
|-------------------------------------------------|


|------------------------------------------------------------------|
|------------------------------------------------------------------|
|------------------------------------------------------------------|
|--9-----9---9---9---9---9---9---9---9---9---9---9---9---9---9---9-|
|--9-----9---9---9---9---9---9---9---9---9---9---9---9---9---9---9-|
|--9-----9---9---9---9---9---9---9---9---9---9---9---9---9---9---9-|
|
|------------------------------------------------------------------|
|-12----12--12--12--12--12--12--12--10--10--10--10--10--10--10--10-|
|--9-----9---9---9---9---9---9---9---7---7---7---7---7---7---7---7-|
|--9-----9---9---9---9---9---9---9---7---7---7---7---7---7---7---7-|
|------------------------------------------------------------------|
|------------------------------------------------------------------|
|
|------------------------------------------------------------------|
|-12b14----(12)----(12)----(12)----(12)----(12)----(12)----(12)----|
|------------------------------------------------------------------|
|------------------------------------------------------------------|
|------------------------------------------------------------------|
|------------------------------------------------------------------|

Bridge
|----------------------------------|------------------------|
|-14b16==(14)-(14)r14-----------12-|-(12)-----------(12)-10-|
|---------------------11---14------|------------------------|
|----------------------------------|------------------------|
|----------------------------------|------------------------|
|----------------------------------|------------------------|
|
|----------------------------------|------------------------|
|----------------------------------|------------------------|
|----------------------------------|------------------------|
|-11b13==(11)-(11)r11------------9-|--(9)------------(9)----|
|----------------------9---12------|---------------------12-|
|----------------------------------|------------------------|
|
| Gtr I
|----------------------------------|------------------------|
|----------------------------------|------------------------|
|--6----------------7----6----7----|---6----7---6-----7-----|
|---------------7------7----7----7-|------7---7---7-------7-|
|----------------------------------|------------------------|
|----------------------------------|------------------------|


|----------------------------------|-------------------------|
|-14b16==(14)-(14)r14-----------12-|-(12)-----------(12)-10--|
|---------------------11---14------|-------------------------|
|----------------------------------|-------------------------|
|----------------------------------|-------------------------|
|----------------------------------|-------------------------|
|
|----------------------------------|-------------------------|
|----------------------------------|-------------------------|
|----------------------------------|-------------------------|
|-11b13==(11)-(11)r11------------9-|--(9)------------(9)-----|
|----------------------9---12------|---------------------12--|
|----------------------------------|-------------------------|
|
|----------------------------------|-------------------------|
|----------------------------------|-------------------------|
|--6----------------7----6----7----|---6----7---6-----7------|
|---------------7------7----7----7-|------7---7---7-------7--|
|----------------------------------|-------------------------|
|----------------------------------|-------------------------|


|----------------------------------|------------------------|
|-14b16==(14)-(14)r14-----------12-|-(12)-----------(12)-10-|
|---------------------11---14------|------------------------|
|----------------------------------|------------------------|
|----------------------------------|------------------------|
|----------------------------------|------------------------|
|
|----------------------------------|------------------------|
|----------------------------------|------------------------|
|----------------------------------|------------------------|
|-11b13==(11)-(11)r11------------9-|--(9)------------(9)----|
|----------------------9---12------|---------------------12-|
|----------------------------------|------------------------|
|
|----------------------------------|------------------------|
|----------------------------------|------------------------|
|--6----------------7----6----7----|---6----7---6-----7-----|
|---------------7------7----7----7-|------7---7---7-------7-|
|----------------------------------|------------------------|
|----------------------------------|------------------------|


                                    3/4
                                              PM
|----------------------------------|----------------|
|-14b16==(14)-(14)r14-----------12-|-(12)-----------|
|---------------------11---14------|------------7---|
|----------------------------------|----------0-7---|
|----------------------------------|----------0-----|
|----------------------------------|----------0-----|
|
|                                             PM
|----------------------------------|----------------|
|----------------------------------|----------------|
|----------------------------------|------------7---|
|-11b13==(11)-(11)r11------------9-|--(9)-----0-7---|
|----------------------9---12------|----------0-----|
|----------------------------------|----------0-----|
|
|----------------------------------|----------------|
|----------------------------------|----------------|
|--6----------------7----6----7----|---6----7---6---|
|---------------7------7----7----7-|------7---7---7-|
|----------------------------------|----------------|
|----------------------------------|----------------|

Out Chorus
   4/4
||-----------------|----------------|----------------|------------------||
||o----------------|----------------|----------------|-----------------o||
||-----------7-6-0-|----------6-7-9-|----------7-6-0-|----------6-7-9---||
||--9-9-4-0--7-7-7-|-7-7-0-2--7-7-7-|-9-9-4-0--7-7-7-|-7-7-0-2--7-7-7---||
||o-9-9-4-0--------|-7-7-0-2--------|-9-9-4-0--------|-7-7-0-2---------o||
||--9-9-4-0--------|-7-7-0-2--------|-9-9-4-0--------|-7-7-0-2----------||
|
||-----------------|----------------|----------------|------------------||
||o----------------|----------------|----------------|-----------------o||
||-----------7-6-0-|----------6-7-9-|----------7-6-0-|----------6-7-9---||
||--9-9-4-0--7-7-7-|-7-7-5-2--7-7-7-|-9-9-4-0--7-7-7-|-7-7-0-2--7-7-7---||
||o-9-9-4-0--------|-7-7-5-2--------|-9-9-4-0--------|-7-7-0-2---------o||
||--9-9-4-0--------|-7-7-5-2--------|-9-9-4-0--------|-7-7-0-2----------||

Outro
|----------------------|--------------------|
|----------------------|--------------------|
|----------------------|--------------------|
|-9-9-x-x-9-9-0-(0)----|-7-x-x-5-5-2-(2)----|
|-9-9-x-x-9-9-0-(0)----|-7-x-x-5-5-2-(2)----|
|-9-9-x-x-9-9-0-(0)----|-7-x-x-5-5-2-(2)----|
|
|----------------------|--------------------|
|----------------------|--------------------|
|----------------------|--------------------|
|-9-9-x-x-9-9-0-(0)----|-7-x-x-5-5-2-(2)----|
|-9-9-x-x-9-9-0-(0)----|-7-x-x-5-5-2-(2)----|
|-9-9-x-x-9-9-0-(0)----|-7-x-x-5-5-2-(2)----|


|----------------------|--------------------|
|----------------------|--------------------|
|----------------------|--------------------|
|-9-9-x-x-9-9-0-(0)----|-7-x-x-7-7-2-(2)----|
|-9-9-x-x-9-9-0-(0)----|-7-x-x-7-7-2-(2)----|
|-9-9-x-x-9-9-0-(0)----|-7-x-x-7-7-2-(2)----|
|
|----------------------|--------------------|
|----------------------|--------------------|
|----------------------|--------------------|
|-9-9-x-x-9-9-0-(0)----|-7-x-x-7-7-2-(2)----|
|-9-9-x-x-9-9-0-(0)----|-7-x-x-7-7-2-(2)----|
|-9-9-x-x-9-9-0-(0)----|-7-x-x-7-7-2-(2)----|


|----------------------|--------------------|
|----------------------|--------------------|
|----------------------|--------------------|
|-9-9-x-x-9-9-0-(0)----|-7-x-x-7-7-2-(2)----|
|-9-9-x-x-9-9-0-(0)----|-7-x-x-7-7-2-(2)----|
|-9-9-x-x-9-9-0-(0)----|-7-x-x-7-7-2-(2)----|
|
|----------------------|--------------------|
|----------------------|--------------------|
|----------------------|--------------------|
|-9-9-x-x-9-9-0-(0)----|-7-x-x-7-7-2-(2)----|
|-9-9-x-x-9-9-0-(0)----|-7-x-x-7-7-2-(2)----|
|-9-9-x-x-9-9-0-(0)----|-7-x-x-7-7-2-(2)----|


|--------------------|------|
|--------------------|------|
|--------------------|-7----|
|-7-x-x-7-7-2-(2)----|-7----|
|-7-x-x-7-7-2-(2)----|-5----|
|-7-x-x-7-7-2-(2)----|-7----|
|
|--------------------|------|
|--------------------|------|
|--------------------|------|
|-7-x-x-7-7-2-(2)----|-0----|
|-7-x-x-7-7-2-(2)----|-0----|
|-7-x-x-7-7-2-(2)----|-0----|




--------------------------------------------------------------------------------


Tablature Legend
----------------
 h   - hammer-on
 p   - pull-off
 b   - bend
 pb  - pre-bend
 r   - bend release (if no number after the r, then release immediately)
 /\  - slide into or out of (from/to "nowhere")
 s   - legato slide
 S   - shift slide
 - natural harmonic
[n]  - artificial harmonic
n(n) - tapped harmonic
 ~   - vibrato
 tr  - trill
 T   - tap
 TP  - trem. picking
 PM  - palm muting
\n/  - tremolo bar dip; n = amount to dip
 \n  - tremolo bar down
 n/  - tremolo bar up
/n\  - tremolo bar inverted dip
 =   - hold bend; also acts as connecting device for hammers/pulls
 <> - volume swell (louder/softer)
 x   - on rhythm slash represents muted slash
 o   - on rhythm slash represents single note slash

comments
print report bad tab
3 comments total.
0 reply
zipy525 wrote on August 19 2007, 03:20 pm

dude, where's the tuning? is it drop d? standard? d standard? what?

0 reply
MiasmA wrote on August 24 2007, 12:49 pm

this is in drop d although saosin plays d standard, so ya ALMOST got it perfect.

0 reply
kilik629 wrote on September 26 2007, 09:13 pm

hm its good but i think u should convert it to d standard or drop c cuz right befeore the chorus they actualy hit some harmonics on the 5th fret... it doesnt sound as good in drop d lol but other than that its good

I want to post or [tab]
guest
You may want to rate the tab now too:
select rating
Please do not post tabs as comments. Select "correction" instead!